Song name
# A B C D E F G H I J K L M N O P Q R S T U V W X Y Z

Teenage Bottlerocket - Bottlerocket tab

------------------------------------------------------------------------------
                 BOTTLEROCKET - TEENAGE BOTTLEROCKET
------------------------------------------------------------------------------

Tabbed by : Boris Paskhaver (bigbadb)

Tuning: Standard 
        Low to High (EADGBe)

INTRO RIFF (0:01, 0:22)

        (x3 for Intro, x1 second time around)
e|-----|-----------------------------------------------------------|
B|-----|-----------------------------------------------------------|
G|--7--|------------------5-------------------5-5-5---------7-7-7--|
D|--7--|--7--7-7-7-7-7-7--5--7-7-7-7-7-7-7-7--5-5-5--5-5-5--7-7-7--|
A|--5--|--7--7-7-7-7-7-7--3--7-7-7-7-7-7-7-7--3-3-3--5-5-5--5-5-5--|
E|-----|--5--5-5-5-5-5-5-----5-5-5-5-5-5-5-5---------3-3-3---------|

  (x1)
e|----------------------------------------------------------|
B|----------------------------------------------------------|
G|------------------5-------------------5-5-5---------7--9--|
D|--7--7-7-7-7-7-7--5--7-7-7-7-7-7-7-7--5-5-5--5-5-5--7--9--|
A|--7--7-7-7-7-7-7--3--7-7-7-7-7-7-7-7--3-3-3--5-5-5--5--7--|
E|--5--5-5-5-5-5-5-----5-5-5-5-5-5-5-5---------3-3-3--------|

VERSE (0:15, 0:30)

  (x4)
e|---------------------------------|
B|---------------------------------|
G|---------------------------7--9--|
D|--9-9-9-9-9-9-9-9-9-9-9-9--7--9--|
A|--9-9-9-9-9-9-9-9-9-9-9-9--5--7--|
E|--7-7-7-7-7-7-7-7-7-7-7-7--------|

OUTRO RIFF (0:36)

  (x3)
e|-------------------------------------------------------------|
B|-------------------------------------------------------------|
G|----------------5--------7--9-9-9-9-9-9-9-9-9-9-9-9-9-9-9-9--|
D|--7--7-7-7-7-7--5--5-5---7--9-9-9-9-9-9-9-9-9-9-9-9-9-9-9-9--|
A|--7--7-7-7-7-7--3--5-5---5--7-7-7-7-7-7-7-7-7-7-7-7-7-7-7-7--|
E|--5--5-5-5-5-5-----3-3---------------------------------------|

  (x1)
e|-------------------------------|
B|-------------------------------|
G|----------------5--------7--9--|
D|--7--7-7-7-7-7--5--5-5---7--9--|
A|--7--7-7-7-7-7--3--5-5---5--7--|
E|--5--5-5-5-5-5-----3-3---------|
Tap to rate this tab
# A B C D E F G H I J K L M N O P Q R S T U V W X Y Z