Song name
# A B C D E F G H I J K L M N O P Q R S T U V W X Y Z

Teenage Bottlerocket - Crawling Back To You tab

*Intro

-------------------------------------|
-------------------------------------|
--------------------7----------------|
----7-------4-------7----------------|
----7-------4-------5----------------|
----5-------2------------------------|


*Verse/Prechorus

-------------------------------------|
-------------------------------------|
--------------------7----------------|
----7-------4-------7-------2--------|
----7-------4-------5-------2--------|
----5-------2---------------0--------|


*Chorus

-------------------------------------|
-------------------------------------|
------------7------------------------|
----4-------7-------7-------2--------|
----4-------5-------7-------2--------|
----2---------------5-------0--------|


*Solo

------------------------------------------------------------------------------|
------------------------------------------------------------------------------|
------------------------------------------------------------------------------|
--------------7-6-2---------7-6-2---------------------------------------------|
--------4-5-7---------4-5-7---------4-5-7-7-7-7-7-7-7-9-7-5-4-5-7-5-4-4-5-4-2-|
------------------------------------------------------------------------------|


//Start
-------------------------------------|
-------------------------------------|
--------------------7----------------|
----7-------4-------7----------------|
----7-------4-------5----------------|
----5-------2------------------------|
Tap to rate this tab
 
# A B C D E F G H I J K L M N O P Q R S T U V W X Y Z