Song name
# A B C D E F G H I J K L M N O P Q R S T U V W X Y Z

Teenage Bottlerocket - Freak Out tab

------------------------------------------------------------------------------
                FREAK OUT! - TEENAGE BOTTLEROCKET
------------------------------------------------------------------------------

Tabbed by : Boris Paskhaver (bigbadb)
Email     : bp771@nyu.edu

Tuning: Standard 
        Low to High (EADGBe)

INTRO / CHORUS RIFF (0:00)

  (x2)
e|-------------------------------------------------------------------|
B|-------------------------------------------------------------------|
G|----------------------------------7-7-7-7-7-7-7-7-7-7-7-7-7-7-7-7--|
D|--7-7-7-7-7--10--5-5-5-5-5-5-5-5--7-7-7-7-7-7-7-7-7-7-7-7-7-7-7-7--|
A|--7-7-7-7-7--10--5-5-5-5-5-5-5-5--5-5-5-5-5-5-5-5-5-5-5-5-5-5-5-5--|
E|--5-5-5-5-5---8--3-3-3-3-3-3-3-3-----------------------------------|

SOLO - RHYTHM (0:12):

  (x2)
e|------------------------------------------------------------------------------|
B|------------------------------------------------------------------------------|
G|-------------------5-5-5-5-5-5-5-5--7-7-7-7-7-7-7-7--10-10-10-10-10-10-10-10--|
D|--7-7-7-7-7-7-7-7--5-5-5-5-5-5-5-5--7-7-7-7-7-7-7-7--10-10-10-10-10-10-10-10--|
A|--7-7-7-7-7-7-7-7--3-3-3-3-3-3-3-3--5-5-5-5-5-5-5-5---8--8--8--8--8--8--8--8--|
E|--5-5-5-5-5-5-5-5-------------------------------------------------------------|

  (On second time, add this to the end)
e|---------------------------------------------------|
B|---------------------------------------------------|
G|--10-10-10-10-10-10-10-10-10-10-10-10-10-10-10-10--|
D|--10-10-10-10-10-10-10-10-10-10-10-10-10-10-10-10--|
A|---8--8--8--8--8--8--8--8--8--8--8--8--8--8--8--8--|
E|---------------------------------------------------|

SOLO - LEAD (0:12):

  (x2)
e|-------------------------|---------------------------|
B|--10-10-10-13--10----10--|--15-15-13-13-12-12-13-13--|
G|------------------12-----|---------------------------|
D|-------------------------|---------------------------|
A|--  PLAY THREE TIMES  ---|---------------------------|
E|-------------------------|---------------------------|

  (On second time, add this to the end)
e|---------------------------------------------------|
B|--13-13-13-13-13-13-13-13-13-13-13-13-13-13-13-13--|
G|---------------------------------------------------|
D|---------------------------------------------------|
A|---------------------------------------------------|
E|---------------------------------------------------|

Repeat intro riff (0:26) and end on abrupt:

e|-----|
B|-----|
G|-----|
D|--7--|
A|--7--|
E|--5--|
Tap to rate this tab
 
# A B C D E F G H I J K L M N O P Q R S T U V W X Y Z