Song name
# A B C D E F G H I J K L M N O P Q R S T U V W X Y Z

Teenage Bottlerocket - Blood Bath At Burger King tab

Blood Bath At Burger King

Intro (Guitar 2 plays chorus)
e|------------------------------------------------------------------------|
B|------------------------------------------------------------------------|
G|---------------------------------9--------------------------------------| 
D|---11-9-11-9-11------(x2)---9-11---12-11---------9----------------------|
A|---------------12------------------------9------------------------------|
E|------------------------------------------------------------------------|

Verse
e|--------------------------------------------------------------------------------|
B|--------------------------------------------------------------------------------|
G|-----------7--------9-----------------------------------------------------------|
D|-7---------7--x8----9-x8--------------------------------------------------------|
A|-7-x16-----5--------7-----------------------------------------------------------|
E|-5------------------------------------------------------------------------------|

Prechorus
e|---------------------------------------------------------------------------------|
B|---------------------------------------------------------------------------------|
G|-7--------9---------7----------9-------------------------------------------------|
D|-7-x8-----9-x8------7--x8------9-------------------------------------------------|
A|-5--------7---------5----------7-------------------------------------------------|
E|---------------------------------------------------------------------------------|

Chorus and Bridge
e|---------------------------------------------------------------------------------|
B|---------------------------------------------------------------------------------|
G|---------9----------------7------------------------------------------------------|
D|-7-------9-x8----4--------7--x8--------------------------------------------------|
A|-7-x8----7-------4-x8-----5------------------------------------------------------|
E|-5---------------2---------------------------------------------------------------|

Intro x2
Verse x4
Prechorus 
Chorus x2
Intro x2
Verse x4
Prechorus
Chorus x2
Bridge(Hold Notes) x2
Chorus x4

Tap to rate this tab
# A B C D E F G H I J K L M N O P Q R S T U V W X Y Z