Song name
# A B C D E F G H I J K L M N O P Q R S T U V W X Y Z

Teenage Bottlerocket - Necrocomicon tab

-----------------------------------------------------------------------------
                                       NECROCOMICON - Teenage Bottlerocket
-----------------------------------------------------------------------------
Tabbed by: Peedunkey
E-mail: bubbin.rose@gmail.com

Tuning: Standard

I needed to tab this out for a three-piece arrangement so it's missing some background
guitar in the solo, etc. but other than that it should be accurate and complete :)

Intro

e|---------------------------------|
B|---------------------------------|
G|---------------------------------| x1
D|-777-777-777-777-777-777-777-777-|
A|-777-777-777-777-777-777-777-777-|
E|-555-555-555-555-555-555-555-555-|

e|---------------------------------|
B|---------------------------------|
G|------101010---------------------| x4
D|-777--101010--101010--555--------|
A|-777--8-8-8---101010--555--------|
E|-555----------8-8-8---333--------|

Verse

e|-------------------------------------------------|
B|-------------------------------------------------|
G|-------------------------------------------------|
D|-777777------3333-5555-777777-------3333-5555----|
A|-777777-1010-3333-5555-777777-1010--3333-5555----|
E|-555555-8-8--1111-3333-555555-8-8---1111-3333----|

e|----------------------------------|
B|----------------------------------|
G|------101010----------------------| x2
D|-777--101010--101010--555---------|
A|-777--8-8-8---101010--555---------|
E|-555----------8-8-8---333---------|

e|-----------------------------------------------|
B|-----------------------------------------------|
G|-----------------------------------------------|
D|-777777-------3333-5555-777777-------3333-5555-|
A|-777777-1010--3333-5555-777777-1010--3333-5555-|
E|-555555-8-8---1111-3333-555555-8-8---1111-3333-|

Chorus

e|----------------------------------|
B|----------------------------------|
G|-------10101010-------------------| x4
D|-7777--10101010--10101010--5555---|
A|-7777--8-8-8-8---10101010--5555---|
E|-5555------------8-8-8-8---3333---|

e|----------------------------------|
B|----------------------------------|
G|----------------------------------|
D|-77777777777777777777777777777777-|
A|-77777777777777777777777777777777-|
E|-55555555555555555555555555555555-|

Solo

e|----------------------------------------------------------------|
B|----------------------------------------------------------------|
G|-----9-----9---7----7----------------9-----9---7----7----5-4----| x2
D|-7-7---7-7---7----7---7-10-9-7---7-7---7-7---7----7---7------5--|
A|----------------------------------------------------------------|
E|----------------------------------------------------------------|

e|--------------------------------------|
B|--------------------------------------|
G|------------7-9-12-10--10-9-7---------| x2
D|-7---7-9-10-------------------10-9-5--|
A|--------------------------------------|
E|--------------------------------------|

Chorus

e|----------------------------------|
B|----------------------------------|
G|-------10101010-------------------| x7
D|-7777--10101010--10101010--5555---|
A|-7777--8-8-8-8---10101010--5555---|
E|-5555------------8-8-8-8---3333---|

e|----------------------------------|
B|----------------------------------|
G|----------------------------------|
D|-1010101010101010-99999999-777----|
A|-1010101010101010-99999999-777----|
E|-8-8-8-8-8-8-8-8--77777777-555----|
Tap to rate this tab
# A B C D E F G H I J K L M N O P Q R S T U V W X Y Z