Song name
# A B C D E F G H I J K L M N O P Q R S T U V W X Y Z

Teenage Bottlerocket - Rathead tab

-------------------------------------------------------------------------------
           RATHEAD - Teenage Bottlerocket
-------------------------------------------------------------------------------
Tabbed by: Curtis Fisher
Email: cmf@phnxmusic.net

Tuning: Standard

..1,2,3,4!

e|---------------------------------------------------------------------------|
B|---------------------------------------------------------------------------|
G|---------------------------------------------------------------------------|
D|-6-6-6-6-6-6-6-6-4-4-4-4-4-4-4-4-------------------------------------------|
A|-6-6-6-6-6-6-6-6-4-4-4-4-4-4-4-4--x4---------------------------------------|
E|-4-4-4-4-4-4-4-4-2-2-2-2-2-2-2-2-------------------------------------------|

e|---------------------------------------------------------------------------|
B|---------------------------------------------------------------------------|
G|-9-9-9-9-9-9-9-9-9-9-9-9-9-9-9-9-------------------------------------------|
D|-9-9-9-9-9-9-9-9-9-9-9-9-9-9-9-9--x2---------------------------------------|
A|-7-7-7-7-7-7-7-7-7-7-7-7-7-7-7-7-------------------------------------------|
E|---------------------------------------------------------------------------|

e|---------------------------------------------------------------------------|
B|---------------------------------------------------------------------------|
G|-----------------111111111111111-9-9-9-9-9-9-9-9-9-111111111111111---------|
D|-9-9-9-9-9-9-9-9-111111111111111-9-9-9-9-9-9-9-9-9-111111111111111--x4-----|
A|-9-9-9-9-9-9-9-9-9-9-9-9-9-9-9-9-7-7-7-7-7-7-7-7-7-9-9-9-9-9-9-9-9---------|
E|-7-7-7-7-7-7-7-7-----------------------------------------------------------|

e|---------------------------------------------------------------------------|
B|---------------------------------------------------------------------------|
G|-----------------111111111111111-9-9-9-9-9-9-9-9---------------------------|
D|-9-9-9-9-9-9-9-9-111111111111111-9-9-9-9-9-9-9-9--x4-----------------------|
A|-9-9-9-9-9-9-9-9-9-9-9-9-9-9-9-9-7-7-7-7-7-7-7-7---------------------------|
E|-7-7-7-7-7-7-7-7-----------------------------------------------------------|

e|---------------------------------------------------------------------------|
B|-end-on--------------------------------------------------------------------|
G|---------------------------------------------------------------------------|
D|-9~--9---------------------------------------------------------------------|
A|-9~--9---------------------------------------------------------------------|
E|-7~--7---------------------------------------------------------------------|

| /  slide up
| \  slide down
| h  hammer-on
| p  pull-off
| ~  vibrato
| +  harmonic
| x  Mute note
===============================================================================
Tap to rate this tab
# A B C D E F G H I J K L M N O P Q R S T U V W X Y Z