Song name
# A B C D E F G H I J K L M N O P Q R S T U V W X Y Z

Teenage Bottlerocket - A Bomb tab

-------------------------------------------------------------------------------
           A BOMB - Teenage Bottlerocket
-------------------------------------------------------------------------------
Tabbed by: Curtis Fisher
Email: cmf@phnxmusic.net

Tuning: Standard

..1,2,3,4!

Part A [x4]
Guitar 1
e|---------------------------------------|
B|---------------------------------------|
G|--7---7---7---7---7---7---7---7---7----|
D|----7---7---7---7---7---7---7---7---7--|
A|---------------------------------------|
E|---------------------------------------|
Guitar 2
e|--------------------------------------|
B|--------------------------------------|
G|--77777777-33333333-------------------|
D|--77777777-33333333-5555555555555555--|
A|--55555555-11111111-5555555555555555--|
E|--------------------3333333333333333--|

Part B [x4]
e|--------------------------------------|
B|--------------------------------------|
G|--------------------------------------|
D|--7777777777777777-55555555-88888888--|
A|--7777777777777777-55555555-88888888--|
E|--5555555555555555-33333333-66666666--|

Part A [x2]
Part B [x4]

Part C
e|--------------|
B|--------------|
G|--------------|
D|--7-----------|
A|--7--[break]--|
E|--5-----------|

Part D [x4]
e|--------------------------------------|
B|--------------------------------------|
G|----------------------------77777777--|
D|--7777777777777777-55555555-77777777--|
A|--7777777777777777-55555555-55555555--|
E|--5555555555555555-33333333-----------|

Part A
Part B
Part A [x2]
Part B [x4]
Part C
Part D [x4]


| /  slide up
| \  slide down
| h  hammer-on
| p  pull-off
| ~  vibrato
| +  harmonic
| x  Mute note
===============================================================================
Tap to rate this tab
 
# A B C D E F G H I J K L M N O P Q R S T U V W X Y Z