Song name
# A B C D E F G H I J K L M N O P Q R S T U V W X Y Z

Teenage Bottlerocket - Be Stag tab

-------------------------------------------------------------------------------
           BE STAG - Teenage Bottlerocket
-------------------------------------------------------------------------------
Tabbed by: Curtis Fisher
Email: cmf@phnxmusic.net

Tuning: Standard

Listen to song for rhythm
and number of total strums
and use downstrokes only.

..1,2,3,4!

Part A
e|-------------------------|
B|-------------------------|
G|-----9--11---------------|
D|--9--9--11---------------| [x2]
A|--9--7--9----------------|
E|--7----------------------|

Part B
e|-------------------------|
B|-------------------------|
G|-----------------9-------|
D|--6--4-----------9-------| [x2]
A|--6--4-[x2]-then-7-------|
E|--4--2-------------------|

Part C
e|-------------------------|
B|-------------------------|
G|-----9--11-9-------------|
D|--9--9--11-9-------------| [x2]
A|--9--7--9--7-------------|
E|--7----------------------|

Part D
e|-------------------------|
B|-------------------------|
G|-----9--11---------------|
D|--9--9--11---------------| [x4]
A|--9--7--9----------------|
E|--7----------------------|

Part E
e|-------------------------|
B|-------------------------|
G|-------------------------|
D|----------9--------------|
A|--end-on--9--------------|
E|----------7--------------|

Part A
Part B
Part C
Part D
Part B
Part C
Part D
Part E

| /  slide up
| \  slide down
| h  hammer-on
| p  pull-off
| ~  vibrato
| +  harmonic
| x  Mute note
===============================================================================
Tap to rate this tab
# A B C D E F G H I J K L M N O P Q R S T U V W X Y Z