Teenage Fanclub - Slow Fade chords

Highlighted       Show chord diagrams
-----------------------------------------------------------------------------
			     SLOW FADE - Teenage Fanclub
-----------------------------------------------------------------------------
Tabbed by: prolix
Email: prolix@operamail.com

Tuning: EADGBE (Standard)

Chord shapes used

        E       A	     Fm       B	

e|----------------------2-------7--------|
B|--------------2-------2-------7--------|
G|------1-------2-------2-------8--------|
D|------2-------2-------4-------9--------|
A|------2---------------4-------9--------|
E|----------------------2-------7--------|


Intro - E / A / E / A

E / A / E / A
Slow fade, pictures in my mind

E / A / E / A
Fragments of memory suspended in time

Fm / B 
I've watched the colours fade

Fm / B 
And the lines disappear

Fm / B /  E / A
Slow fade, pictures in my mind


E / A / E / A
Decaying, pictures in my mind

E / A / E / A
The fleeting images recede and decline

Fm / B 
The colours seep away

Fm / B 
And the lines disappear

Fm / B /  E / A
Slow fade, pictures in my mind


Fm / B 
I've watched the colours fade

Fm / B 
And the lines disappear

Fm / B /  E / A
Slow fade, pictures in my mind
Tap to rate this tab
 
# A B C D E F G H I J K L M N O P Q R S T U V W X Y Z