Song name
# A B C D E F G H I J K L M N O P Q R S T U V W X Y Z

Teenagers - Homecoming tab

Homecoming
The Teenagers
Reality Check
2008
Drop D Tuning

This song is by the French indie/sytnh pop band "The Teenagers"

INTRO:
e:----------------------------------------------------------------------|
B:----------------------------------------------------------------------|
G:----------------------------------------------------------------------|
D:----------------------------------------------------------------------|
A:--9-9-9-9-9-9-9-9--9-7-7-7-7-7-7-7--7-7-7-7-7-7-7-7--7-7-7-7-7-7-7-7--|
D:--0-0-0-0-0-0-0-0--0-0-0-0-0-0-0-0--5-5-5-5-5-5-5-5--5-5-5-5-5-5-5-5--|

"oooooohhhhh"
e:----------------------------------------------------------------------|
B:----------------------------------------------------------------------|
G:----------------------------------------------------------------------|
D:----------------------------------------------------------------------|
A:--5-5-5-5-5-5-5-5--5-7-7-7-7-7-7-7--7-7-7-7-7-7-7-7--7-7-7-7-7-7-7-7--|
D:--0-0-0-0-0-0-0-0--0-0-0-0-0-0-0-0--5-5-5-5-5-5-5-5--5-5-5-5-5-5-5-5--|

VERSE:
"Last week..."
e:----------------------------------------------------------------------|
B:----------------------------------------------------------------------|
G:----------------------------------------------------------------------|
D:----------------------------------------------------------------------|
A:--7-7-7-7-7-7-7-7--7-7-7-7-7-7-7-7--7-7-7-7-7-7-7-5--5-5-5-5-5-5-5-5--|
D:--5-5-5-5-5-5-5-5--5-5-5-5-5-5-5-5--0-0-0-0-0-0-0-0--0-0-0-0-0-0-0-0--|

e:----------------------------------------------------------------------|
B:----------------------------------------------------------------------|
G:----------------------------------------------------------------------|
D:----------------------------------------------------------------------|
A:--7-7-7-7-7-7-7-7--7-7-7-7-7-7-7-7--5-5-5-5-5-5-5-5--7-7-7-7-7-7-7-7--|
D:--5-5-5-5-5-5-5-5--5-5-5-5-5-5-5-5--0-0-0-0-0-0-0-0--0-0-0-0-0-0-0-0--|

e:----------------------------------------------------------------------|
B:----------------------------------------------------------------------|
G:----------------------------------------------------------------------|
D:----------------------------------------------------------------------|
A:--7-7-7-7-7-7-7-7--7-7-7-7-7-7-7-7--7-7-7-7-7-7-7-5--5-5-5-5-5-5-5-5--|
D:--5-5-5-5-5-5-5-5--5-5-5-5-5-5-5-5--0-0-0-0-0-0-0-0--0-0-0-0-0-0-0-0--|

"On day two, i ****ed her..."
e:-------------------------------|-------------------------------|
B:-------------------------------|-------------------------------|
G:-------------------------------|-------------------------------|
D:-------------------------------|--7-7--5--5--4--4-4-4-4-4-4-4--|
A:--9-9--7--7--5--5-5-5-5-5-5-5--|--9-9--7--7--5--5-5-5-5-5-5-5--|
D:--7-7--5--5--4--4-4-4-4-4-4-4--|-(7-7--5--5--4--4-4-4-4-4-4-4)-|

CHORUS:
     "I ****ed my american cunt.           I loved my english romance.."
Guitar One
e:--------------------------------------------------------------------|
B:--------------------------------------------------------------------|
G:--------------------------------------------------------------------|
D:--------------------------------------------------------------------|
A:--2-2-2-2-2-2-2-0--0-0-0-0-0-0-0--0-0-0-0-0-0-0-0--0-0-0-0-0-0-0-0--|
D:--0-0-0-0-0-0-0-0--0-0-0-0-0-0-0--4-4-4-4-4-4-4-2--2-2-2-2-2-2-2-2--|
Guitar Two                                                              x4
e:--------------------------------------------------------------------|
B:--12-12--12-12-----12-12--12-12---10-10--10-10-----10-10---10-10----|
G:--11-11--11-11-----11-11--11-11----9--9---9--9------9--9----9--9----|
D:---9--9---9--9------9--9---9--9----7--7---7--7------7--7----7--7----|
A:--------------------------------------------------------------------|
D:--------------------------------------------------------------------|

BREAK:
Guitar Two
e:------------------------------------------------|
B:--10-10--10-10-----10-10--10-10---10-10--10-10--|
G:---9--9---9--9------9--9---9--9----9--9---9--9--|
D:---7--7---7--7------7--7---7--7----7--7---7--7--|
A:------------------------------------------------|
D:------------------------------------------------|

VERSE:
"Okay..."
Guitar One:
e:-------------------------------------------|
B:---10--10--10--10-------7---7---7---7------|
G:--9---9---9---9---x2---9---9---9---9---x2--|
D:-------------------------------------------| x2
A:-------------------------------------------|
D:-------------------------------------------|

[ both guitars come in ]

Guitar One:
       x2                        x2
e:-------------------|---------------------|
B:---10--10--10--10--|-----7---7---7---7---|
G:--9---9---9---9----|--9---9---9---9------|
D:-------------------|---------------------| x2
A:-------------------|---------------------|
D:-------------------|---------------------|

Guitar Two:
first time
e:----------------------------------------------------------------------|
B:----------------------------------------------------------------------|
G:----------------------------------------------------------------------|
D:----------------------------------------------------------------------|
A:--7-7-7-7-7-7-7-7--7-7-7-7-7-7-7-7--7-7-7-7-7-7-7-9--9-9-9-9-9-9-9-9--|
D:--5-5-5-5-5-5-5-5--5-5-5-5-5-5-5-5--0-0-0-0-0-0-0-0--0-0-0-0-0-0-0-0--|
second time
e:----------------------------------------------------------------------|
B:----------------------------------------------------------------------|
G:----------------------------------------------------------------------|
D:----------------------------------------------------------------------|
A:--7-7-7-7-7-7-7-7--7-7-7-7-7-7-7-7--7-7-7-7-7-7-7-5--5-5-5-5-5-5-5-5--|
D:--5-5-5-5-5-5-5-5--5-5-5-5-5-5-5-5--0-0-0-0-0-0-0-0--0-0-0-0-0-0-0-0--|

"Oh my God I think I'm in love.."
e:-------------------------------|-------------------------------|
B:-------------------------------|-------------------------------|
G:-------------------------------|-------------------------------|
D:-------------------------------|--7-7--5--5--4--4-4-4-4-4-4-4--|
A:--9-9--7--7--5--5-5-5-5-5-5-5--|--9-9--7--7--5--5-5-5-5-5-5-5--|
D:--7-7--5--5--4--4-4-4-4-4-4-4--|-(7-7--5--5--4--4-4-4-4-4-4-4)-|

CHORUS
     "I f*cked my american cunt.           I loved my english romance.."
Guitar One
e:--------------------------------------------------------------------|
B:--------------------------------------------------------------------|
G:--------------------------------------------------------------------|
D:--------------------------------------------------------------------|
A:--2-2-2-2-2-2-2-0--0-0-0-0-0-0-0--0-0-0-0-0-0-0-0--0-0-0-0-0-0-0-0--|
D:--0-0-0-0-0-0-0-0--0-0-0-0-0-0-0--4-4-4-4-4-4-4-2--2-2-2-2-2-2-2-2--|
Guitar Two                                                              repeat till end
e:--------------------------------------------------------------------|
B:--12-12--12-12-----12-12--12-12---10-10--10-10-----10-10---10-10----|
G:--11-11--11-11-----11-11--11-11----9--9---9--9------9--9----9--9----|
D:---9--9---9--9------9--9---9--9----7--7---7--7------7--7----7--7----|
A:--------------------------------------------------------------------|
D:--------------------------------------------------------------------|


END WITH
Guitar Two
e:----------------|
B:--12-12--12-12--|
G:--11-11--11-11--|
D:---9--9---9--9--|
A:----------------|
D:----------------|
Tap to rate this tab
# A B C D E F G H I J K L M N O P Q R S T U V W X Y Z