Teengenerate - Sex Cow tab

----------------------------------------------------------------------------
			     Sex Cow - Teengenerate
----------------------------------------------------------------------------


Tabbed by: Squishy
Tuning: Standard


Intro/Verse:
e|-------------------|
B|-------------------|
G|-----------2-4-----|
D|--4-44444442-4-----|  Do this a couple of times
A|--4-44444440-2-----|
E|--2-2222222--------|
      *******

Chorus:
e|---------------------------------|
B|---------------------------------|
G|--7777777-66-44---------2222-----|Don't ask for the number of strums -this is just a rough guide
D|--7777777-66-44-2-------2222-----|
A|--5555555-44-22-0-4-444-0000-----|
E|------------------2-222----------|

Bridge Thingy:
e|-----------------------------------------------------|
B|-----------------------------------------------------|
G|--------99999-------8/9-8/9-8/9-------99999----------|
D|--66666-99999-66666-8/9-8/9-8/9-66666-99999-444444---|
A|--66666-77777-66666-6/7-6/7-6/7-66666-77777-444444---|
E|--44444-------44444-------------44444-------222222---|

After this just play the the verse part for the solo

Outro:
e|----------------|
B|----------------|
G|--77777-99999---| x3 or 4
D|--77777-99999---|
A|--55555-77777---|
E|----------------|
Tap to rate this tab
 
# A B C D E F G H I J K L M N O P Q R S T U V W X Y Z