Song name
# A B C D E F G H I J K L M N O P Q R S T U V W X Y Z

Teeth - Darating tab

                        "DARATING" BY TEETH
                       transcribed by: freon
                 visit me at: freongang_81@yahoo.com
                      freongang_08@yahoo.com
    
      NOTE: FOR THOSE WHO EMAIL ME AND REQUESTING FOR TABS>>>
                 "PUTANG INA SALAMAT SA TIWALA NYO"
                 
                 PLEASE CHECK THIS OUT\\\ 
  intro: x8
e|-------------------------------------|
B|-9-9-9-9-9-9-9-9-9-9-9-9-9-9-9-9-----|
G|-6-6-6-6-6-6-6-6-5-5-5-5-5-5-5-5-----|
D|-------------------------------------|
A|-------------------------------------|
E|-------------------------------------|

e|-----9-------9----------9-------9--------|
B|---9---9---9---9------9---9---9---9------|
G|-6-------6-------6--5-------5-------5----|
D|-----------------------------------------|
A|-----------------------------------------|
E|-----------------------------------------|

 minsan lang darating...
e|-------------------------------------|
B|-9-9-9-9-9-9-9-9-9-9-9-9-9-9-9-9-----|
G|-6-6-6-6-6-6-6-6-5-5-5-5-5-5-5-5-----|
D|-------------------------------------|
A|-------------------------------------|
E|-------------------------------------|
Tap to rate this tab
 
# A B C D E F G H I J K L M N O P Q R S T U V W X Y Z