Song name
# A B C D E F G H I J K L M N O P Q R S T U V W X Y Z

Teeth - Prinsesa Live tab

Somg:Prinsesa
Artist:The Teeth
Date Tabbed:June,2007
Guitar Tabber:Ryan Manongdo/17/m/Montalban Rizal
              no_falter0x@yahoo.com(Friendster&YM)

I would like to greet Mr.Marky 143(tnx a lot man)
and my new classmates in Our Lady of Fatima University(Lagro)
              
For your questions or suggestions,just post in friendster comment,PM or mail me.

Gtr.Legends:
b - bend
/ - slide
h - hammer-on
~ - let it ring

Gtr.Tuning:Standard(Normal)

Intro:
Gtr.1
e|-----------------------|
B|-----------------------|
G|-6666-6666-4444--------|
D|-6666-6666-4444-4444---|
A|-4444-3333-2222-4444---|
E|----------------2222---|

Gtr.2 Enters
e|-------------------------------------------------------|
B|-----------6-----------6-----------6------------6------|
G|-2/6-6-6-8---6~--6-6-8---8~--6-6-8---6~---6-6-8---6~---|
D|-------------------------------------------------------|
A|-------------------------------------------------------|
E|-------------------------------------------------------|

Verse 1:Naka-upo siya....
Gtr.1:Continue Playing Intro

Gtr.2
e|-------------------|
B|---6-----4---4-----|
G|-6---6-----6---6---|
D|-------------------|
A|-------------------|
E|-------------------|

Pre-Chorus:Dalhin mo ako....
Gtr.1
e|-----------------------------------------------------------------|
B|-----------------------------------------------------------------|
G|--------666666---------66666---------66666-----------------------|
D|-666666-666666---66666-66666---66666-66666---66666-4444-777777---|
A|-666666-444444---66666-44444---66666-44444---66666-4444-777777---|
E|-444444----------44444---------44444---------44444-2222-555555---|

Gtr.2
e|-----------------------      ---------------|
B|---6~----6~------------      ---------------|
G|-6-----6------6666666-- 3x   ---------------|
D|----------------------- Then -4444-777777---|
A|-----------------------      -4444-777777---|
E|-----------------------      -2222-555555---|

Chorus:Prinsesa,prinsesa....
Gtr.1 and Gtr.2:Play Intro

Pre-Verse 2
Gtr.1:Plaay Intro

Gtr.2
e|---------------14---------------14-----------------14-------|
B|-1414----14-16----14~------14-16----14~------14-16----14~---|
G|------13----------------13----------------13----------------|
D|------------------------------------------------------------|
A|------------------------------------------------------------|
E|------------------------------------------------------------|

Verse 2:Di ako makatulog...
Play Verse 1

Repeat Chorus:

Repeat Chorus:

Bridge:
Gtr.1:Play Intro

Gtr.2:
e|---------------------------------------------------------------------------------------------------|
B|-6666-6666-6666-666666-6666666666666666666---6666-6666-66666666---666666-6666---4---4-6-4-6-4-4~---|
G|-6666-8888-6666-888888-----------------------6666-8888------------666666------6---6-----------6~---|
D|---------------------------------------------------------------------------------------------------|
A|---------------------------------------------------------------------------------------------------|
E|---------------------------------------------------------------------------------------------------|

Repeat Pre-Chorus:

Outro Chorus:Ohh aking prinsesa...
Gtr.1:Play Intro

Gtr.2
e|-------------------------------------------------------------------------------------------44-66666-9h11-9~--
B|-2/999999999999-7-6-6h7-6-----------------------------------------------------------4-4/6--------------------
G|--------------------------8-6~-----6---6-8-10-8-6-8-6-------6b---------------6b-6b---------------------------
D|---------------------------------8---8----------------8-6h8---------6h7-9h11---------------------------------
A|----------------------------------------------------------------7h9------------------------------------------
E|-------------------------------------------------------------------------------------------------------------

----------------------------------------------------|
--------6-----------6-----------6------------6------|
6-6-6-8---6~--6-6-8---8~--6-6-8---6~---6-6-8---6~---|
----------------------------------------------------|
----------------------------------------------------|
----------------------------------------------------|

End...

Prinsesa Lyrics:

Verse 1
Nakaupo sya sa isang madilim na sulok
Ewan ko ba kung bakit
sa libu-libong babaeng nandoon
Wala pang isang minuto
Nahulog na ang loob ko sa iyo
Gusto ko sanang marinig ang tinig mo
Umasa na rin na sanay
mahawakan ko ang palad mo
Gusto ko sanang lumapit
kung di lang sa lalaking kayakap mo

Pre-Chorus
Dalhin mo ako sa iyong palasyo
Maglakad tayo sa hardin ng iyong kaharian
Wala man akong pagaari
Pangako kong habangbuhay kitang pagsisilbihan
O aking prinsesa

Chorus:
Prinsesa
Prinsesa


Verse 2:
Di ako makatulog
Naisip ko ang ningning ng iyong mata
Nasa isip kita buong umaga buong magdamag
Sanay parati kang tanaw
O ang sakit isipin itoy isang panaginip
Panaginip lang

Repeat Pre-Chorus:

Repeat Chorus: 
Tap to rate this tab
 
# A B C D E F G H I J K L M N O P Q R S T U V W X Y Z