Song name
# A B C D E F G H I J K L M N O P Q R S T U V W X Y Z

Tegan And Sara - Want To Be Bad tab

TITLE: Want to Be Bad
ARTIST: Tegan and Sara
ALBUM: If It Was You

Tuning: tune A down to G



[INTRO]
e|---------------------------|
B|--0---0---0---0---0--0---0-|
G|--0---0---0---0---0--0---0-|
D|-12--10--12--10---9h10--10-| x2
G|--0---0---0---0---0--0---0-|
E|---------------------------|

e|-------------------------|
B|--0-0--0---0-0--0---0--0-|
G|--0-0--0---0-0--0---0--0-|
D|--7h9--9---7h9--9--10--9-| x2
G|--0-0--0---0-0--0---0--0-|
E|-------------------------|



[VERSE]
Your crowbar swung...
e|-----|
B|--0--|
G|--0--|
D|-12--|
G|--0--|
E|-----|

(played between each line)
e|-------------------------|
B|--0-0--0---0-0--0---0--0-|
G|--0-0--0---0-0--0---0--0-|
D|--7h9--9---7h9--9--10--9-| x2
G|--0-0--0---0-0--0---0--0-|
E|-------------------------|



[CHORUS]
Don't get in over your head
e|--------------------------|
B|--0-----------------0-----|
G|--0-----------------0-----|
D|--0-----------------0-----|
G|--7-----------------2-----|
E|--8-----------------2-----|

I just want to be bad; Oh, oh, alright
e|------------------------------------|
B|---------------0---------------0----|
G|---------------0---------------0----|
D|---------------0---------------0----|
G|--------------12---------------2----|
E|--------------12---------------2----|

I just want to be bad; Oh, oh, alright
e|------------------------------------|
B|---------------0---------------0----|
G|---------------0---------------0----|
D|---------------0---------------5----|
G|--------------12---------------5----|
E|--------------12--------------------|

You're so tragedy and you were hard on me
e|---------------------------------------|
B|--------------0------------------------|
G|--------------0------------------------|
D|--------------7------------------------|
G|--------------0------------------------|
E|---------------------------------------|



[BRIDGE]
Then morning came; we're in this together
e|----------------------------------------|
B|---0-----------------------------0------|
G|---0-----------------------------0------|
D|---2-----------------------------5------| x2
G|---0-----------------------------0------|
E|----------------------------------------|

I don't care how far we go; what's the matter?
e|---------------------------------------------|
B|---------------0---------------------0-------|
G|---------------0---------------------0-------|
D|---------------2---------------------5-------|
G|---------------0---------------------0-------|
E|---------------------------------------------|
Tap to rate this tab
# A B C D E F G H I J K L M N O P Q R S T U V W X Y Z