Song name
# A B C D E F G H I J K L M N O P Q R S T U V W X Y Z

Tegan And Sara - When I Get Up tab

Highlighted       Show chord diagrams
-------------------------------------------------------------------------------
			     WHEN I GET UP - Tegan and Sara
-------------------------------------------------------------------------------
Tabbed by: Keith Babiasz
Email:

Tuning: Standard. Capo on 5th fret.

VERSE

         A#     F      G
e|--------------------------------------------------------------------------------|
B|-------1------1------3----------------------------------------------------------|
G|-------2------2------0----------------------------------------------------------|
D|-------2------3------0----------------------------------------------------------|
A|-------0------3------2----------------------------------------------------------|
E|--------------1------3----------------------------------------------------------|

x 4

Pre-Chorus

         E      F
e|-------------------------------------------------------------------------------|
B|--------------1----------------------------------------------------------------|
G|--------------2----------------------------------------------------------------|
D|-------2------3----------------------------------------------------------------|
A|-------2------3----------------------------------------------------------------|
E|-------0------1----------------------------------------------------------------|

x 2 then

         G
e|------------------------------------------------------------------------------|
B|-------3----------------------------------------------------------------------|
G|-------0----------------------------------------------------------------------|
D|-------0----------------------------------------------------------------------|
A|-------2----------------------------------------------------------------------|
E|-------3----------------------------------------------------------------------|

Repeat verse and pre-chorus

then

Chorus

         F      C
e|-------------------------------------------------------------------------------|
B|-------1------1----------------------------------------------------------------|
G|-------2------0----------------------------------------------------------------|
D|-------3------2----------------------------------------------------------------|
A|-------3------3----------------------------------------------------------------|
E|-------1-----------------------------------------------------------------------|

x 11 then

         G
e|------------------------------------------------------------------------------|
B|-------3----------------------------------------------------------------------|
G|-------0----------------------------------------------------------------------|
D|-------0----------------------------------------------------------------------|
A|-------2----------------------------------------------------------------------|
E|-------3----------------------------------------------------------------------|

then
pre-chorus x 4
chorus x 7
verse x 2

They alternate between finger picking and strumming. You'll have to listen to the 
to know when to do what.

| /  slide up
| \  slide down
| h  hammer-on
| p  pull-off
| ~  vibrato
| +  harmonic
| x  Mute note
===============================================================================
Tap to rate this tab
# A B C D E F G H I J K L M N O P Q R S T U V W X Y Z