Guitaretab - guitar tabs
Song name
# A B C D E F G H I J K L M N O P Q R S T U V W X Y Z

Tegan And Sara - His Love tab

heey.. this is the first time i do this... i hope it helps!...
enjoy!!

CAPO ON THIRD.


Verse:

e--------------------------------------------------------/
B--------------------------------------------------------/
G-------0-----------------------0------------------------/
D-----------7-----------------------10-------------------/
A---5-----------5---1---3---8------------8---5---3-------/
E--------------------------------------------------------/

Augusten, if I write something beautiful
Will it squash the hurt thatís living deep inside of you?
Augusten, are you just like me
Does your hurt fade as you write out your history?

I just want to know how you were able
To survive so long with the wolf at the table

Augusten, so you were hiding in the forest
With your love still laid out before him
Augusten, with that love stuck inside
how did you ever sleep at night?

I just want to know how you were able
To survive so long with the wolf at the table
Augusten, tell me how were you able
To control the urge to kill the wolf at the table?
[ Tab from: http://www.guitaretab.com/t/tegan-and-sara/115108.html ]
e---------------------------------------|
B---------------------------------------|
G-------0-----------0-------------------|  x2
D-----------3-----------3-------3-------|
A---1-----------1-----------1-----------|
E---------------------------------------|


e---------------------------------------|
B---------------------------------------|
G-------0------------0------------0-----|
D-----------10-----------10-------------|
A---8------------8------------8---------|
E---------------------------------------|

e---------------------------------------|
B---------------------------------------|
G-------0-----------0-----------0-------|
D-----------7-----------7---------------|
A---5-----------5-----------5-----------|
E---------------------------------------|

His love, his love you spoke of
Oh oh oh oh oh oh oh oh oh oh oh oh oh....


e---------------------------------------|
B---------------------------------------|
G-------0-----------0-------------------|  x2
D-----------3-----------3-------3-------|
A---1-----------1-----------1-----------|
E---------------------------------------|

e---------------------------------------|
B---------------------------------------|
G-------0-----------0-----------0-------|
D-----------7-----------7---------------|   x2
A---5-----------5-----------5-----------|
E---------------------------------------|


One, two, three, four
His love right out the door
One, two, three, four
His love right out the door
One, two, three, four
His love right out the door...
Related for His Love tab