Song name
# A B C D E F G H I J K L M N O P Q R S T U V W X Y Z

Tegan And Sara - Underwater tab

---------------------------
UNDERWATER - Tegan and Sara
---------------------------

yes, again i'm positive these tabs are 100% accurate.
enjoy!!

TUNING: standard

*listen to the song for rhythm*

verse 1:
(underwater i wrote drowning...)
e|----|----8--|----|----8--|-10-|
B|----|----8--|----|----8--|-10-|
G|--4-|-9--9--|--4-|-9--9--|-11-|
D|--5-|-10-10-|--5-|-10-10-|-12-| play x2
A|--5-|-10-10-|--5-|-10-10-|-12-|
E|--3-|-8-----|--3-|-8-----|----|

pre-chorus:
(i'm a car crash...)
e|----|----|----|----|
B|----|----|----|----|
G|-11-|-9--|-11-|-9--|
D|-12-|-10-|-12-|-10-|
A|-12-|-10-|-12-|-10-|
E|-10-|-8--|-10-|-8--|

chorus:
(all i need is time...)
e|----|----|----|----|
B|----|----|----|----|
G|--4-|-11-|-9--|-11-|
D|--5-|-12-|-10-|-12-|
A|--5-|-12-|-10-|-12-|
E|--3-|-10-|-8--|-10-|

verse 1:
(the forecast is grey...)
e|----|----8--|----|----8--|-10-|
B|----|----8--|----|----8--|-10-|
G|--4-|-9--9--|--4-|-9--9--|-11-|
D|--5-|-10-10-|--5-|-10-10-|-12-| play x2
A|--5-|-10-10-|--5-|-10-10-|-12-|
E|--3-|-8-----|--3-|-8-----|----|

[play pre-chorus]
[play chorus, repeat until end]
Tap to rate this tab
 
# A B C D E F G H I J K L M N O P Q R S T U V W X Y Z