Song name
# A B C D E F G H I J K L M N O P Q R S T U V W X Y Z

Tegan And Sara - Nineteen tab

This isn't the whole song, but I noticed the lead for the chorus was missing. So here's 
attempt!

Capo on 5th to cover the real version, I think they use it on 4th for live.
Tab is relative to capo :D

E---------------------------------------------------------------------------|
B --------------------------------------------------------------------------|
G ---4-4-4-5-5-5-7-7-5-5-5-4-4-4-2-2---4-4-4-5-5-5-7-7-5-5-5-4-4-4-2-2------|
D --------------------------------------------------------------------------|
A --------------------------------------------------------------------------|
E --------------------------------------------------------------------------|

E---------------------------------------------------------------------------|
B --------------------------------------------------------------------------|
G ---2-2-2-0-0-0------------------------------------------------------------|
D ----------------4-4-2-2-2-2-2-0------------0-0-0-0-0-0-0-0-0-0-4-4-5-5----|
A ---------------------------------2-2-3-3-3--------------------------------|
E --------------------------------------------------------------------------|

E---------------------------------------------------------------------------|
B --------------------------------------------------------------------------|
G ---4-4-4-5-5-5-7-7-5-5-5-4-4-4-2-2---4-4-4-5-5-5-7-7-5-5-5-4-4-4-2-2------|
D --------------------------------------------------------------------------|
A --------------------------------------------------------------------------|
E --------------------------------------------------------------------------|

E---------------------------------------------------------------------------|
B --------------------------------------------------------------------------|
G ---2-2-2-0-0-0------------------------------------------------------------|
D ----------------4-4-2-2-2-2-2-0------------0-0-0-0-0-0-0-0-0-0-4-4-4-4----|
A ---------------------------------2-2-3-3-3--------------------------------|
E --------------------------------------------------------------------------|


E-------------------------------------|
B-------------------------------------|
G-------------------------------------|
D--5-5-5-5-5-5-5-5-5------------------|
A-------------------------------------|
E-------------------------------------|
Tap to rate this tab
 
# A B C D E F G H I J K L M N O P Q R S T U V W X Y Z