Song name
# A B C D E F G H I J K L M N O P Q R S T U V W X Y Z

Tegan And Sara - Heavy tab

Artist: Tegan and Sara
Song: Heavy
Album: Under Feet Like Ours
Tuning: Standard

There are only two chords used in the whole song and they are
pretty easy.

e ----------8----------6--------|
B ----------8----------6--------|
G ----(B)---8----(E)---7--------|
D ---------10----------8--------|
A ---------10----------8--------|
E ----------8----------6--------|


30 second intro

e --(B)---------------(E)---------(B)------------(E)----------|(B)
B ---C-----------------C---4/3-----C---6/9--6/8---C--9\8\6----|C
G ---H-0--5/8--5/7--3--H-3-----5---H-5----------7-H-7------5--|H
D ---O-----------------O---------5-O--------------O-----------|O
A ---R-----------------R-----------R--------------R-----------|R
E -6-D-----------------D-----------D--------------D-----------|D


e ------------8--7--8/10-**-8--7--4--3-H10--------------------|
B ---6/9--6/8---------------------------------P10-**-1/4------|
G -5----------------------------------------------------------|
D ------------------------------------------------------------|
A ------------------------------------------------------------|
E ------------------------------------------------------------|


Verse
(w/ a bit of distortion)

e ------------------------------------------------------------|
B ------------------------------------------------------------|
G --4\3--3\1--------------------------------------------------|
D ------------5\1---------------------------------------------|
A ------------------------------------------------------------|
E ------------------------------------------------------------|

Mid-Song Solo

Guitar 1
e ------------------------------------------------------------|
B ------------------------------------------------------------|
G ------------------------------------------------------------|
D ------------------------------------------------------------|
A --3--3--6--~1/5~--5--6--5-(2x)----3--3--6--~1/5~-**---------|
E ------------------------------------------------------------|

Guitar 2 (this part sounds weird without the first guitar so
if you don't have a partner, i suggest playing guitar 1)
e ------------------------------------------------------------|
B ------------------------------------------------------------|
G ----8----------7---8---8------------------------------------|
D ------10---------8---8--------------------------------------|
A ---------10-------------------------------------------------|
E --8---------6-----------------------------------------------|


Lyrics:

An angel kissed my strings
While I slept last night
And her rhythm broke my hunger
And I died a little less

Well I just want to get some
Get some while I'm still tall
Oh, let's tell the world we're unheard
We're unsure
We're unstop
We're unstoppable Oh

 Let's tell the girls to be strong
To be sure
To be heard
We want to be heard

And you're all
You're all I want
Yeah all I want
So tell me, tell me, tell me, tell me, tell me where have you been?

Well an angel kissed my hands
While I slept last night
And when I woke up this morning
God, I missed you something fierce

I just want to get some
Get some while I'm still tall
Oh, let's tell the world we're unheard
We're unsure
We're unstop
We're unstoppable Oh
Let's tell the girls to be strong
To be sure
To be heard
We want to be heard

And you're all
You're all I want
Yeah all I want
So tell me, tell me, tell me, tell me, tell me where have you been?

Fashion isn't dead
No it's just inside out
It's just inside out

She says she needs a priest
Wants to get closer to God
I say all I need's a ladder
I want to touch your sky
You want it all

Do you want it all?
Do you want it all?
Do you want it all?

And you're heavy in my heart
You're heavy in my hands
You're heavy in my mouth
Yes you're heavy in my day
You're heavy in my songs
You're heavy in light

And you're all that I want
Yeah you're all that I want
Yeah you're all that I want
God you're all that I want
Oh, you're all I want
Tap to rate this tab
# A B C D E F G H I J K L M N O P Q R S T U V W X Y Z