Song name
# A B C D E F G H I J K L M N O P Q R S T U V W X Y Z

Tegan And Sara - Celebration tab

Artist: Tegan and Sara
Song: Celebration
Album: Red Demo
Tuning: Standard



       C (barred)                   C (open) 
e-----------------------|    e----0-----0-----0---| 
B-----------------------|    B------1-----1-------| 
G----9-------9-------9--| or G--------0-----0-----| 
D------10------10-------|    D--------------------| 
A---------10------10----|    A--3-----------------| 
E--8--------------------|    E--------------------| 

Whichever one you choose, repeat it for the whole song. 
(it's the same picking patter for the open c, I just can't get it to line up properly here) 


2nd Guitar riffs: 


(0:15) (0:23) 
e--12-12-12--12/-10/-8--8------|-------------------| 
B------------------------------|-------------------| 
G------------------------------|--9-9--7-7--5-5-  -| 
D------------------------------|-------------------| 
A------------------------------|-------------------| 
E------------------------------|-------------------| 

(0:30) 
e---------------------------------------------------------------| 
B---------------------------------------------------------------| 
G---------------------------------------------------------------| 
D---------------------------------------------------------------| 
A--------3-3-333-3333333----------33333333-33333333-------------| 
E--5-3-0------------------5-0-3-0-------------------------------| 

(0:39) 
e--------------------------------------------------------------------------------------| 
B--------------------------------------------------------------------------------------| 
G--------------------------------------------------------------------------------------| 
D--------------------------------------------------------------------------------------| 
A--77777777-77777777-77777777-7777777--33333333-33333333-33333333-333333333------------| 
E--------------------------------------------------------------------------------------| 


e------------------------------------------------------| 
B------------------------------------------------------| 
G------------------------------------------------------| 
D------------------------------------------------------| 
A--77777777-77777777--33333333-33333333----------------| 
E------------------------------------------------------| 

(1:03) 
e----------------| 
B----------------| 
G--9-9--7-5-5----| 
D----------------| 
A----------------| 
E----------------| 

(1:10) 
e-----------------------------------------------------| 
B-----------------------------------------------------| 
G-----------------------------------------------------| 
D-----------------------------------------------------| 
A--33333333-33333333--77777777-77777777---------------| 
E-----------------------------------------------------| 

(1:23) (1:33) 
e------------------------------------12-12--10-8-8-8---| 
B------------------------------------------------------| 
G------------------------------------------------------| 
D------------------------------------------------------| 
A----------3-3-3--------3-3-3--------------------------| 
E--5-3-0----------5-3-0--------------------------------| 

(1:40) 
e------------------------| 
B------------------------| 
G--9-9-9--7-7--5-5-5-----| 
D------------------------| 
A------------------------| 
E------------------------| 

(1:4 
e---------------------------------------------------------| 
B---------------------------------------------------------| 
G---------------------------------------------------------| (x4) 
D---------------------------------------------------------| 
A---33333333--33333333/--77777777--77777777---------------| 
E---------------------------------------------------------| 

(2:17) (2:23) 
e--------------------------------------| 
B--------------------------------------| 
G--9-9-9/-5-5---9-9-9-9-9/--5-5--------| 
D--------------------------------------| 
A--------------------------------------| 
E--------------------------------------| 

(2:31) 
e---------------------------------------------------------------------------------------| 
B---------------------------------------------------------------------------------------| 
G---------------------------------------------------------------------------------------| 
D---------------------------------------------------------------------------------------| 
A--77777777-77777777--33333333-33333---------33333333-33333--------33333333-------------| 
E-------------------------------------------------5-3-0--------------------5-3-0--------| 

(2:47) (3:11) 
e--12-12-10-8---|--12-12-12-12-12-12-12--10-8--------| 
B---------------|------------------------------------| 
G---------------|------------------------------------| 
D---------------|------------------------------------| 
A---------------|------------------------------------| 
E---------------|------------------------------------| 

(3:1 
e------------| 
B------------| 
G------------| (x3) 
D------------| 
A---------3--| 
E---5-3-0----|


Here are the lyrics:

That stream the angels like at first
you're a threat and promising no
between the houses and the stop signs
your eyes your future like it all
I don't wanna know
I don't wanna know

well if I ever get home
I'm gonna tell you I miss you
cos I miss you
where's my
where's my celebration
I'm breathing with you
when you wake up
you always move closer

by and by and I have never known
who lied
and I said don't you know
you will live you always anyways
and you voice your fingers when you say
I don't wanna know
I don't wanna know

well if I ever get home
I'm gonna tell you I miss you
cos I miss you
where's my
where's my celebration
I'm breathing with you
when you wake up
you always move closer
closer, closer, closer, closer, 
closer, closer, closer, closer

listen to me
if I ever get home
if I ever get home
I'm gonna tell you I miss you
cos I miss you


Tap to rate this tab
 
# A B C D E F G H I J K L M N O P Q R S T U V W X Y Z