Guitaretab - guitar tabs
Song name
# A B C D E F G H I J K L M N O P Q R S T U V W X Y Z

Tegan And Sara - I Ran So Far Away tab

Artist: Tegan and Sara
Song: I Ran (So Far Away)
Album: Cover
Tuning: Standard



Intro:

e-------------------------|
B-------------------------|
G---14--14---14--12--12---|
D---14--14---14--12--12---|
A---12--12---12--10--10---|
E-------------------------|

e--------------|
B--------------|
G--------------|
D---3--5-------|
A---3--5--7----|
E---1--3--5----|

Verse:

e-----------|
B-----------|
G-----------|
D---7--5----|
A---7--5----|
E---5--3----|


Chorus:

e----------|
B----------|
G----------|
D---3--5---|
A---3--5---|
E---1--3---|


Lyrics:
[ Tab from: http://www.guitaretab.com/t/tegan-and-sara/167251.html ]
I walked along the avenue.
I never thought I'd meet a girl like you;
Meet a girl like you.
With auburn hair and tawny eyes;
The kind of eyes that hypnotize me through;
Hypnotize me through.

And I ran, I ran so far away.
I just ran, I ran all night and day.
I couldn't get away.

A cloud appears above your head;
A beam of light comes shining down on you,
Shining down on you.
The cloud is moving nearer still.
Aurora borealis comes in view;
Aurora comes in view.

And I ran, I ran so far away.
I just ran, I ran all night and day.
I couldn't get away.

Reached out a hand to touch your face;
You're slowly disappearing from my view;
Disappearing from my view.
Reached out a hand to try again;
I'm floating in a beam of light with you;
A beam of light with you.

And I ran, I ran so far away.
I just ran, I ran all night and day.
I couldn't get away.
Related for I Ran So Far Away tab
Advertisement will be closed in 10 seconds