Song name
# A B C D E F G H I J K L M N O P Q R S T U V W X Y Z

Tegan And Sara - Superstar tab

Help us improve GuitareTab! Take a short survey!
Song: Superstar
By: Tegan and Sara
Tabbed by:madison wikston

Tuning: Standard (capo on 5th fret)


e|----------------------------------------------|
B|--------1-0-1---------------------------------|
G|------2-------2----------1--------------------|
D|----2-----------2------2---4------------------|
A|--0------------------2------------------------|
E|-------------------0--------------------------|

The rest of the song is just these chords (same ones the part above was based on)
They're just A minor and E major, except moved up because of the capo.

e|---0---------0--------------------------------------------------------|
B|---1---------0--------------------------------------------------------|
G|---2---------1--------------------------------------------------------|
D|---2---------2--------------------------------------------------------|
A|---0---------2--------------------------------------------------------|
E|-------------0--------------------------------------------------------|

enjoy :)

Lyrics:
Dignified in what she does 
When she sings the smile that she brings 
To all of you unaware of what's to come 
I said tell me what's to come

Green is the color of my envy
It's the color of fame
So I'm gonna write it down, gonna  scream it out
And I'm never gonna be the same again

Fear is the color you've all exposed
Now I've gotta get up here
And prove the importance
Of my clothes of my pose I suppose again

Hard core superstar by far
you're the ultimate star
Hard core superstar by far
you're the ultimate star
Do you wanna be a superstar
Well that's what you are
You're gonna be a star
Do you wanna be a superstar?

Clever in what she does 
Competing for the attention
Of those people that you know
My whole life revolves around your absence
Until I can't remember
What I was, what I am
What I know or where I go

Every moment was that moment
Every day was that day
Every second was that second
And I've lost myself again
Yes I've lost myself again

Hard core superstar by far
you're the ultimate star
Hard core superstar by far
you're the ultimate star
Do you wanna be a superstar
Well that's what you are
You're gonna be a star
Do you wanna be a superstar?

Soon my face will be on every magazine
And then my voice will be on every frequency
Take my heart while you're at it 
why don't you sign me up to sell me out?
Why don't you sign me up to sell me out?
Why don't you sign me up to sell me out?

Hard core superstar by far
you're the ultimate star
Hard core superstar by far
you're the ultimate star
Do you wanna be a superstar
Well that's what you are
You're gonna be a star
Do you wanna be a superstar?

I am my angel 'til death I do 
I saw my first angel
And it was you
I am my angel 'til death I do 
I saw my first angel
And it was you
I am my angel 'til death I do 
I saw my first angel
And it was you

Whats to come?
it was you.
Related for Superstar tab