Song name
# A B C D E F G H I J K L M N O P Q R S T U V W X Y Z

Tegan And Sara - The First tab

Capo: 7th Fret

Intro:

E---------------------------------|
B-----0h1~------------0h1~--------|
G----------0---------------0------|
D--2~----------0-0h2~---------0---|
A---------------------------------|
E---------------------------------|


Verse:
    Am   G
E---0----3---|
B---1----0---|
G---2----0---|
D---2----0---|
A---0----2---|
E---0----3---|

Chorus:

(We decide to go out walking)

    Am   C    G
E---0----0----3---|
B---1----1----0---|
G---2----0----0---|
D---2----2----0---|
A---0----3----2---|
E---0----0----3---|

Second guitar, no capo:

E---x----X-----2---|
B---x----X-----3---|
G---9----12----2---|
D---9----12----0---|
A---7----10----0---|
E---X----X-----X---|

Bridge:

(On the edge of town...)

E----------------|--------------------------|
B----------------|--------1----------0------|
G----------------|-----------2----------0---|
D----------------|-----2--------------------| (4X)
A-------------2--|--0--------------2--------|
E-3--3--3--3-----|--------------3-----------|
Tap to rate this tab
 
# A B C D E F G H I J K L M N O P Q R S T U V W X Y Z