Song name
# A B C D E F G H I J K L M N O P Q R S T U V W X Y Z

Tegan And Sara - Hell tab

Artist: Tegan and Sara
Album: Sainthood (2009)
This song can be played both in Standard Tuning, or with the Capo on the 1st 
fret.  I'm tabbing it in Standard

Intro (0:00 - 0:24)
Guitar 1: (4x)
e|-------------------------------------------|
B|-------------------------------------------|
G|-----------------------666-x-666-x-66/8-8-8|
D|33-x-333-x-333-x-333-x-666-x-666-x-66/8-8-8|
A|33-x-333-x-333-x-333-x-444-x-444-x-44/6-6-6|
E|11-x-111-x-111-x-111-x---------------------|

Guitar 2 (0:12 - 0:24)
e|--------------------------------------|
B|9-9-9-9-8-8-8-8--9-9-9-9-11-11-11-11--|
G|-8-8-8-8-8-8-8-88-8-8-8----8--8--8--8-|
D|--------------------------------------|
A|--------------------------------------|
E|--------------------------------------|


Verse (0:24 - 0:35) 
Guitars silent for first half of verse
Guitars 1 & 2 (0:35 - 0:46)(2x)
e|-------------------------------------------|
B|-------------------------------------------|
G|-----------------------666-x-666-x-66/8-8-8|
D|33-x-333-x-333-x-333-x-666-x-666-x-66/8-8-8|
A|33-x-333-x-333-x-333-x-444-x-444-x-44/6-6-6|
E|11-x-111-x-111-x-111-x---------------------|

Chorus (0:47 - 1:09) (2x)          
e|-----------------------------------|
B|-----------------------------------|
G|---------6666----------------------|
D|44444444-6666-6666-8888888888888888|
A|44444444-4444-6666-8888888888888888|
E|22222222------4444-6666666666666666|

e|---------------------------------|
B|---------------------------------|
G|---------6666--------------------|
D|44444444-6666-6666-88-888-888-888|
A|44444444-4444-6666-88-888-888-888|
E|22222222------4444-66-666-666-666|

Intro(1:10 - 1:22)

Verse 2 (1:22 - 1:44)
Guitars silent for first half of verse
Guitars 1 & 2 (1:33 - 1:44)(2x)
e|-------------------------------------------|
B|-------------------------------------------|
G|-----------------------666-x-666-x-66/8-8-8|
D|33-x-333-x-333-x-333-x-666-x-666-x-66/8-8-8|
A|33-x-333-x-333-x-333-x-444-x-444-x-44/6-6-6|
E|11-x-111-x-111-x-111-x---------------------|


Chorus 2 (1:45 - 2:08)
e|-----------------------------------|
B|-----------------------------------|
G|---------6666----------------------|
D|44444444-6666-6666-8888888888888888|
A|44444444-4444-6666-8888888888888888|
E|22222222------4444-6666666666666666|

e|---------------------------------|
B|---------------------------------|
G|---------6666--------------------|
D|44444444-6666-6666-88-888-888-888|
A|44444444-4444-6666-88-888-888-888|
E|22222222------4444-66-666-666-666|

Solo (2:09 - 2:19)
e|----------------------------------|
B|----------------------------------|
G|55-55-55-55-55888------888--------|
D|--6--6--5--5-----8-888----6-666---|
A|----------------------------------|
E|----------------------------------|

e|----------------------------------|
B|----------------------------------|
G|55-55-55-55-558888888888----------|
D|--6--6--5--5------------88888888--|
A|----------------------------------|
E|----------------------------------|

Verse 3 (2:19 - 2:30)
No guitar

Chorus (2x)
Tap to rate this tab
 
# A B C D E F G H I J K L M N O P Q R S T U V W X Y Z