Song name
# A B C D E F G H I J K L M N O P Q R S T U V W X Y Z

Tegan And Sara - Red Belt tab

OK i know this isn't 100 percent but i think its close enough.listen to the song for the timing.


intro/versus
------------------------------------------------------|
---------------------------------------------13-------|
-----15-13-----15-13-15-13-------15-13----15----13----|palm mute
-18---------18-------------16-15-------18-------------|
------------------------------------------------------|
------------------------------------------------------|
lead over versus
------------------------------------|
-9/11-9-9/11-9-7-6-9/11-9-9/11-13-9-|
------------------------------------|
------------------------------------|
------------------------------------|
------------------------------------|

---------------------------|
---------------------------|
----15----15----15----15---|
-18----18----18----18------|
---------------------------|
---------------------------|

---------------------------|
----13---------------------|
-13-------15----15----13---|palm mute
-------18----15----15------|
---------------------------|
---------------------------|
Tap to rate this tab
# A B C D E F G H I J K L M N O P Q R S T U V W X Y Z