Song name
# A B C D E F G H I J K L M N O P Q R S T U V W X Y Z

Tegan And Sara - Hell tab

Artist: Tegan and Sara
Song: Hell
Album: Sainthood

All guitars ---> CAPO 1st FRET!

Tegan's guitar:
Intro:
e|-------------------------------------|
B|-------------------------------------|
G|-------------------55-555-55/7-7-77--| x4
D|--22-222-222-222-2-55-555-55/7-7-77--|
A|--22-222-222-222-2-33-333-33/5-5-55--|
E|--00-000-000-000-0-------------------|

"Four blocks run and hide...":
e|--15151515151515151515151515151515--------------|
B|-----------------------------------131313-1515--|
G|------------------------------------------------|x2
D|------------------------------------------------|
A|------------------------------------------------|
E|------------------------------------------------|

Chorus:
e|-------------------------------------------------------------------------|
B|-------------------------------------------------------------------------|
G|-----------5555---------------------------------5555---------------------|
D|--33333333-5555-5555-7777777777777777--33333333-5555-5555-77-777-777-777-|
A|--33333333-3333-5555-7777777777777777--33333333-3333-5555-77-777-777-777-|
E|--11111111------3333-5555555555555555--11111111------3333-55-555-555-555-|
Repeat this 2 times.

Intro x2
"Four blocks..." part, repeat x2
Chorus x2

Bridge:
e|-------------------------------------------------------------------------|
B|-------------------------------------------------------------------------|
G|-55555555-77777777--------------------55555555-44444444-7777777788888888-|
D|-55555555-77777777-77777777-22222222--55555555-44444444-7777777788888888-|
A|-33333333-55555555-77777777-22222222--33333333-22222222-5555555566666666-|
E|-------------------55555555-00000000-------------------------------------|
 
Chorus x4

Then finish with:
e|---------|
B|---------|
G|---------|
D|-77-777--|x4
A|-77-777--|
E|-55-555--|

----------------------------------------------------------------------------


Ted's guitar:
Intro:
e|----------------------------------------|
B|-8-8-8-8-7-7-7-7---8-8-8-8-10-10-10-10--|
G|--7-7-7-7-7-7-7-7-7-7-7-7----9--9--9--9-|
D|----------------------------------------|x2
A|----------------------------------------|
E|----------------------------------------|

Verse (Keyboard part):
e|-----------------33-33-3--------------------------33-33-3---------|
B|-------------------------1-11-33--------------------------3-33-55-|
G|-00-00-00-00-0-0------------------00-00-00-00-0-0-----------------|
D|------------------------------------------------------------------|
A|------------------------------------------------------------------|
E|------------------------------------------------------------------|

Chorus (Keyboard part):
e|-----------------------------------------------------------------------|
B|-88888888-55555555-33333333-00000000---000-88888-1010-5555555555555555-|
G|-----------------------------------------------------------------------|
D|-----------------------------------------------------------------------|
A|-----------------------------------------------------------------------|
E|-----------------------------------------------------------------------|

Intro x2
Verse

Bridge:
e|---------------------------------------------------------------------|
B|---------------------------------------------------------------------|
G|----4---4---4---4--777-4444-777--4----4---4---4---4-7777777788888888-|
D|--55--55--55--55---------------77---55--55--44--44--7777777777777777-|
A|---------------------------------------------------------------------|
E|---------------------------------------------------------------------|

Chorus

-----------------------------------------------------------------------------

Sara's guitar:
Intro:
e|-------------------------------------|
B|-------------------------------------|
G|-------------------55-555-55/7-7-77--| x4
D|--22-222-222-222-2-55-555-55/7-7-77--|
A|--22-222-222-222-2-33-333-33/5-5-55--|
E|--00-000-000-000-0-------------------|

Verse (starts at "four block run..."): 
e|-------------------------------------|
B|-------------------------------------|
G|-------------------55-555-55/7-7-77--| x2
D|--22-222-222-222-2-55-555-55/7-7-77--|
A|--22-222-222-222-2-33-333-33/5-5-55--|
E|--00-000-000-000-0-------------------|


Chorus (there's a little change with Tegan's guitar):
e|-------------------------------------------------------------------------|
B|-------------------------------------------------------------------------|
G|-----------5555---------------------------------5555-7777----------------|
D|--33333333-5555-5555-7777777777777777--33333333-5555-7777-77-777-777-777-|
A|--33333333-3333-5555-7777777777777777--33333333-3333-5555-77-777-777-777-|
E|--11111111------3333-5555555555555555--11111111-----------55-555-555-555-|

Repeat Intro, Verse and...

Bridge:
e|-------------------------------------------------------------------------|
B|-------------------------------------------------------------------------|
G|-55555555-77777777--------------------55555555-44444444-7777777788888888-|
D|-55555555-77777777-77777777-22222222--55555555-44444444-7777777788888888-|
A|-33333333-55555555-77777777-22222222--33333333-22222222-5555555566666666-|
E|-------------------55555555-00000000-------------------------------------|


Chorus x4

Then finish with:
e|---------|
B|---------|
G|---------|
D|-77-777--|x4
A|-77-777--|
E|-55-555--|



And that's ALL the song! :D
Tap to rate this tab
# A B C D E F G H I J K L M N O P Q R S T U V W X Y Z