Song name
# A B C D E F G H I J K L M N O P Q R S T U V W X Y Z

Tegan And Sara - Alligator Acoustic chords

Highlighted       Show chord diagrams
This is the chords for the acoustic version played at peak radio,
if you havent heard it yet clicko el linko below...o

http://www.youtube.com/watch?v=XbwmL6POQ0k

Sounds about right not to sure about the Em chord thou. Anyone care to tab Shauns bass part?


Verse

  F   G   A
e-----------------------|
b-----------------------|
g-----------------------|
d--3---5--7-------------|
a--3---5--7-------------|
e--1---3--5-------------|

run around on me sooner die without....

  F   G   Em? F
e-------------------------|
b-------------------------|
g-------------------------|
d--3---5---2--3-----------|
a--3---5---2--3-----------|
e--1---3------1-----------|
Tap to rate this tab
# A B C D E F G H I J K L M N O P Q R S T U V W X Y Z