Song name
# A B C D E F G H I J K L M N O P Q R S T U V W X Y Z

Tegan And Sara - It Was Midnight tab

Tegan and Sara
It Was Midnight
Sainthood (Bonus)
Tuning: E A D G B e

Guitar 1
(0:00 - 0:12)
e|------------------------|
B|------------------------|
G|--77---99---55----------|    X4
D|--77---99---55----------|
A|--55---77---33----------|
E|------------------------|

(0:13 - 0:36)
e|------------------------|
B|------------------------|
G|--777799995555----------|    X8
D|--7777999955555555------|
A|--5555777733335555------|
E|--------------3333------|

(0:37 - 0:48)
e|------------------------|
B|------------------------|
G|--77---99---55----------|    X4
D|--77---99---55----------|
A|--55---77---33----------|
E|------------------------|

(0:49 - 1:23)
e|------------------------|
B|------------------------|
G|--777799995555----------|    X12
D|--7777999955555555------|
A|--5555777733335555------|
E|--------------3333------|

(1:24 - 1:35)
e|------------------------|
B|------------------------|
G|--77---99---55----------|    X4
D|--77---99---55----------|
A|--55---77---33----------|
E|------------------------|

(1:36 - 2:03)
e|------------------------|
B|------------------------|
G|--99991212121277777777--|    X8
D|--99991212121277777777--|
A|--77771010101055555555--|
E|------------------------|


Guitar 2:
(0:12 - 0:24)
(0:48 - 1:00)
(1:26 - 1:36)
e|---7-10---7-5---7-10-5---7-5---|
B|--8-8----8-8---8-8------8-8----|
G|-------------------------------|   X2
D|-------------------------------|
A|-------------------------------|
E|-------------------------------|




Tap to rate this tab
 
# A B C D E F G H I J K L M N O P Q R S T U V W X Y Z