Song name
# A B C D E F G H I J K L M N O P Q R S T U V W X Y Z

Tegan And Sara - It Was Midnight tab

It Was Midnight
Tegan And Sara


Tabbed by: sydney
Email: sydboo33@gmail.com


This is my first tab, but I'm 99.9% sure that this is correct. It's an awesome song. Enjoy!!

Tuning:Standard

Verse: 
x4
e|---------------------------------------------------------------------------|
B|---------------------------------------------------------------------------|
G|--7-7-----9-9--------------------------------------------------------------|        
D|--7-7-----9-9----10-10-----------------------------------------------------|
A|--5-5-----7-7----10-10-----------------------------------------------------|
E|-----------------8--8------------------------------------------------------|

It was midnight
Your hand was in mine
All eyes were on our table
It was after noon before you were out of bed 
and I was able...

Pre-Chorus: 
x4
e|---------------------------------------------------------------------------|
B|---------------------------------------------------------------------------|
G|---7-7-7-7----9-9-9-9----------------12-12-12-12-12------------------------|
D|---7-7-7-7----9-9-9-9----10-10-10----12-12-12-12-10------------------------|
A|---5-5-5-5----7-7-7-7----10-10-10----10-10-10-10-10------------------------|
E|-------------------------8--8--8-------------------------------------------|

to concentrate
to figure out a plan to keep you here
to evaluate
to make a list,
a list to convince you...


Chorus:
x2
e|---------------------------------------------------------------------------|
B|-------------------------------------10-10-10-10-10------------------------|
G|---9-9-9-9----12-12-12-12----7-7-7----9--9--9--9--9------------------------|
D|---9-9-9-9----12-12-12-12----7-7-7----7--7--7--7--7------------------------|
A|---7-7-7-7----10-10-10-10----5-5-5-----------------------------------------|
E|---------------------------------------------------------------------------|

e|---------------------------------------------------------------------------|
B|---------------------------------------------------------------------------|
G|---9-9-9-9----12-12-12-12----7-7-7-7-7-7-7-7-------------------------------|
D|---9-9-9-9----12-12-12-12----7-7-7-7-7-7-7-7-------------------------------|
A|---7-7-7-7----10-10-10-10----5-5-5-5-5-5-5-5-------------------------------|
E|---------------------------------------------------------------------------|

Don't run away
It only fuels the flames
Don't pull away
It only makes me wanna stay..


Verse:
x4

e|---------------------------------------------------------------------------|
B|---------------------------------------------------------------------------|
G|--7-7-----9-9--------------------------------------------------------------|        
D|--7-7-----9-9----10-10-----------------------------------------------------|
A|--5-5-----7-7----10-10-----------------------------------------------------|
E|-----------------8--8------------------------------------------------------|

It was Monday
you were packing on my floor
My eyes were charting every move you made
It was early evening before you 
were home and I was sure you were safe

Pre-Chorus: 
x4
e|---------------------------------------------------------------------------|
B|---------------------------------------------------------------------------|
G|---7-7-7-7----9-9-9-9----------------12-12-12-12-12------------------------|
D|---7-7-7-7----9-9-9-9----10-10-10----12-12-12-12-10------------------------|
A|---5-5-5-5----7-7-7-7----10-10-10----10-10-10-10-10------------------------|
E|-------------------------8--8--8-------------------------------------------|

I can't concentrate
I try so hard to plan to keep you here 
I can't evaluate
I threw away the list to convince you

Chorus:
x4
e|---------------------------------------------------------------------------|
B|-------------------------------------10-10-10-10-10------------------------|
G|---9-9-9-9----12-12-12-12----7-7-7----9--9--9--9--9------------------------|
D|---9-9-9-9----12-12-12-12----7-7-7----7--7--7--7--7------------------------|
A|---7-7-7-7----10-10-10-10----5-5-5-----------------------------------------|
E|---------------------------------------------------------------------------|

e|---------------------------------------------------------------------------|
B|---------------------------------------------------------------------------|
G|---9-9-9-9----12-12-12-12----7-7-7-7-7-7-7-7-------------------------------|
D|---9-9-9-9----12-12-12-12----7-7-7-7-7-7-7-7-------------------------------|
A|---7-7-7-7----10-10-10-10----5-5-5-5-5-5-5-5-------------------------------|
E|---------------------------------------------------------------------------|

Don't run away
It only fuels the flames
Don't pull away
It only makes me wanna stay.
Don't run away
It only fuels the flames
Don't pull away
It only makes me wanna stay.

Verse/Bridge:
x4

e|---------------------------------------------------------------------------|
B|---------------------------------------------------------------------------|
G|--7-7-----9-9--------------------------------------------------------------|        
D|--7-7-----9-9----10-10-----------------------------------------------------|
A|--5-5-----7-7----10-10-----------------------------------------------------|
E|-----------------8--8------------------------------------------------------|

gone...
gone...
gone...
gone...

Chorus: (slightly different)

x4
e|---------------------------------------------------------------------------|
B|---------------------------------------------------------------------------|
G|---9-9-9-9----12-12-12-12----7-7-7-7-7-7-7-7-------------------------------|
D|---9-9-9-9----12-12-12-12----7-7-7-7-7-7-7-7-------------------------------|
A|---7-7-7-7----10-10-10-10----5-5-5-5-5-5-5-5-------------------------------|
E|---------------------------------------------------------------------------|

Don't run away
It only fuels the flames
Don't pull away
It only makes me wanna stay.
Don't run away
It only fuels the flames
Don't pull away
It only makes me wanna stay.


(then normal chorus pattern) x2
e|---------------------------------------------------------------------------|
B|---------------------------------------------------------------------------|
G|---9-9-9-9----12-12-12-12----7-7-7----10-10-10-10-10-----------------------|
D|---9-9-9-9----12-12-12-12----7-7-7----9--9--9--9--9------------------------|
A|---7-7-7-7----10-10-10-10----5-5-5----7--7--7--7--7------------------------|
E|---------------------------------------------------------------------------|

e|---------------------------------------------------------------------------|
B|---------------------------------------------------------------------------|
G|---9-9-9-9----12-12-12-12----7-7-7-7-7-7-7-7-------------------------------|
D|---9-9-9-9----12-12-12-12----7-7-7-7-7-7-7-7-------------------------------|
A|---7-7-7-7----10-10-10-10----5-5-5-5-5-5-5-5-------------------------------|
E|---------------------------------------------------------------------------|

(last time through chorus ends like this)
e|---------------------------------------------------------------------------|
B|-------------------------------------10-10-10-10-10------------------------|
G|---9-9-9-9----12-12-12-12----7-7-7----9--9--9--9--9------------------------|
D|---9-9-9-9----12-12-12-12----7-7-7----7--7--7--7--7------------------------|
A|---7-7-7-7----10-10-10-10----5-5-5-----------------------------------------|
E|---------------------------------------------------------------------------|

e|---------------------------------------------------------------------------|
B|---------------------------------------------------------------------------|
G|---9-9-9-9----12-12-12-----------------------------------------------------|
D|---9-9-9-9----12-12-12-----------------------------------------------------|
A|---7-7-7-7----10-10-10-----------------------------------------------------|
E|---------------------------------------------------------------------------|


Don't run away
It only fuels the flames
Don't pull away
It only makes me wanna stay.
Don't run away
It only fuels the flames
Don't pull away
It only makes me wanna stay.
Tap to rate this tab
 
# A B C D E F G H I J K L M N O P Q R S T U V W X Y Z