Song name
# A B C D E F G H I J K L M N O P Q R S T U V W X Y Z

Tegan And Sara - On Directing Acoustic tab

This is my first tab, it's the version from the live Winnepeg acoustic session. I 
figured out Tegan's part yet but I will have it soon.

Main Riff
e)-------------------------------------------------------|
b)-------------------------------------------------------|
g)-------------------------------------------------------|
d)--10--------------12-----------------------------------|
a)--8---x15---------10---x15-----------------------------|
e)--8---------------10-----------------------------------|

Chorus (Listen to Stumming Pattern Carefully)
e)--------------------------------------------------------|
b)--------------------------------------------------------|
g)--------------------------------------------------------|
d)--------------------------------------------------------|
a)---8--------------12--------repeat as neeeded-----------|
e)---8--------------12------------------------------------|

After course (oh oh directing me)
e)-----------------------------------------------------|
b)-----------------------------------------------------|
g)-----------------------------------------------------|
d)-----------------------------------------------------|
a)---8---------12-----------10---listen to pattern-----|
e)---8---------12-----------10-------------------------|

Ending Of song (end on 12 with down stum)
e)------------------------------------------------------|
b)------------------------------------------------------|
g)------------------------------------------------------|
d)------------------------------------------------------|
a)---8---------12-------repeat as needed----------------|
e)---8---------12---------------------------------------|

This is a very simple song, you will have to listen to the song to figure out the 
patterns, but as songs go this is not very difficult, email if you find any errors, I will add 
it for Tegans part. Thanks.
simple3dayz@hotmail.com
Tap to rate this tab
# A B C D E F G H I J K L M N O P Q R S T U V W X Y Z