Song name
# A B C D E F G H I J K L M N O P Q R S T U V W X Y Z

Tegan And Sara - Hell tab

Capo on 1st. I have only played this acousticly, so I don't know what it sounds like on electric.
INTRO
e--3----3-----3----3----------------------------------------------------|
b----3-----3----3-----3---7----7-----7-----7---------8----8----8----8---|
g----------------------------7----7-----7-----7--7------7----7----7---7-|
d-----------------------------------------------------------------------|
a-----------------------------------------------------------------------|
E-----------------------------------------------------------------------|

e----------------------------------------------------------------------|
b-----10----10-----10-----10-------------------------------------------|
g--7-----9------9------9------9----------------------------------------|
d----------------------------------------------------------------------|
a----------------------------------------------------------------------|
E----------------------------------------------------------------------|
REPEAT

AFTER 1ST CHORUS
e--3----3-----3----3----------------------------------------------------|
b----3-----3----3-----3---7----7-----7-----7---------8----8----8----8---|
g----------------------------7----7-----7-----7--7------7----7----7---7-|
d-----------------------------------------------------------------------|
a-----------------------------------------------------------------------|
E-----------------------------------------------------------------------|

e----------------------------------------------------------------------|
b-----10----10-----10-----10-------------------------------------------|
g--7-----9------9------9------9----------------------------------------|
d----------------------------------------------------------------------|
a----------------------------------------------------------------------|
E----------------------------------------------------------------------|
REPEAT

AFTER 2ND CHORUS
e----------------------------------------------------------------------|
b----------------------------------------------------------------------|
g-----4------4--4------4-----4--4--------------------------------------|
d--5------5--------5-------5---------12--12--12--9--9--9--9--9---------|
a----------------------------------------------------------------------|
E----------------------------------------------------------------------|

e----------------------------------------------------------------------|
b----------------------------------------------------------------------|
g----------------------------------------------------------------------|
d--12--12--12---------------------9------------------------------------|
a-------------12--12--12--12--12---------------------------------------|
E----------------------------------------------------------------------|

e----------------------------------------------------------------------|
b----------------------------------------------------------------------|
g----4----4--4----4-----4--4-------------------------------------------|
d--5----5-------4-----4-------12--12--12--12--12--12--12--12-----------|
a----------------------------------------------------------------------|
E----------------------------------------------------------------------|

e----------------------------------------------------------------------|
b----------------------------------------------------------------------|
g----------------------------------------------------------------------|
d----------------------------------------------------------------------|
a--12--12--12--12--12--12--12--12--------------------------------------|
E----------------------------------------------------------------------|

Email me if I made a mistake!- emma.mccready@gmail.com
Tap to rate this tab
 
# A B C D E F G H I J K L M N O P Q R S T U V W X Y Z