Song name
# A B C D E F G H I J K L M N O P Q R S T U V W X Y Z

Tegan And Sara - Ive Got You tab

I've got you - Tegan and Sara

Here's the tab - thanks to Bronte for playing these guys so much that I'm hooked.

Quote: 'This song is not for Sarah, because again, that is creepy'

Tabbed by T*RAVc

--<>---


Capo 5th

Chords used:

   Am7 Fmaj#11  G    Em    F     C
e|--3-----0-----1-----0----1-----0-|
B|--1-----0-----0-----0----1-----1-|
G|--2-----2-----0-----0----2-----0-|
D|--2-----3-----0-----2----3-----2-|
A|--0-----3-----2-----2----3-----3-|
E|--x-----1-----3-----0----1-----x-|

Verse:

   Am7  Fmaj#11 G
e|----3--------------------|
B|---1-----------0--0------|
G|---2----2-------0--0-----|
D|---------3 (ring out)----|
A|--0----------------------|
E|-------1------3--3--3----|


Bridge: Em, F, Em, F, G (use similar picking pattern to verse)

Refrain:

    F     C               G
e|--------------------------------|
B|---1-----1---------------0---0--|
G|----2-----0----(repeat)---0---0-|
D|--3--3--------------------------|
A|--------3--3--------------------|
E|------------------------3---3---|

Am7          Fmaj#11        G
I don't need company in the company of you
Am7          Fmaj#11          G
I don't need love 'cause your love will do

    Em       F        Em         F
and I've got you, and you've got me
    G
and that's all we need

Am7 Fmaj#11 G
I don't need air, I don't need to breathe
I don't need rest, I don't have time to sleep

Em F Em F G
'cause I've got you, and you've got me
and that's all we need

F C
when I get up so do you
when you get up I sleep right through
and on the road I sleep alone
and I can't wait until I'm home

Em F Em F G
'cause I've got you, and you've got me
I've got you, and you've got me
and that's all we need
Tap to rate this tab
 
# A B C D E F G H I J K L M N O P Q R S T U V W X Y Z