Song name
# A B C D E F G H I J K L M N O P Q R S T U V W X Y Z

Tegan And Sara - Hell chords

Highlighted       Show chord diagrams
Hell- Tegan and Sara
Capo 1 for original key

Intro-Em-C-D

Em
No I'm not ready for
  C                D 
A big bad step in that direction
Em
No i'm not ready for
  C                  D
A downtown trash void collection
    Em
4 o'clock is running high

I don't walk alone at night
    C                    D
Cityscape, city change before they die
    Em
4 o'clock such a mention in a song if I wanna
     C7
Get along would change you
   D
It doesn't want to change this
...............................................
chorus
F          Csus2   G
I know you feel it too
Am                            
These words get over used when 
F             Csus2       G
We get up and over it and over them
Am
Up and over it and over them
F          Csus2   G
I know you feel it too
Am
It all seems so untrue when 
F              Csus2       G
You get up and over it and over them
Am
Uh-oh oh no, uh-oh oh no

...............................................
INTRO RIFF
...............................................

Em
No we're not ready for
  C                       D
A fair distribution just a terminal solution
Em
No we're not ready for
C                 D
Hell hell no for, Hell hell no 
  Em
4 days wide awake while you slide along and say
       C                              D
Girls afraid, Girls will change, just move away
  Em
4 days that I mention in a song move along
     C                   D
Get ahead, get a hand and bring her with you



...............................................

CHORUS

...............................................

Bridge/solo

   C7M/ D Am/ Em
E||-------------------------------------------||
B||-------------------------------------------||
G||---4---44---4---44-777-4~-444-777-------5~-|| 
D||-5---5----5---5-------------------7~-7-----||
A||-------------------------------------------||
E||-------------------------------------------||


   C7M/ Bsus4/ E7sus4/ E
E||-----------------------------------------------------||
B||-----------------------------------------------------||
G||---4---4----4---4---7-7-7-7-7-7-7-7------------------|| 
D||-5---5----4---4---------------------7-7-7-7-7-7-7-7--||
A||-----------------------------------------------------||
E||-----------------------------------------------------||



  Em
4 ways to remove all the bad that we do
         C                        D
From the heart and the soul of the city sad and cold
  Em
4 ways to collect what we say and what we save
      C                 D
To discard and discover a brand new way

...............................................

F          Csus2   G
I know you feel it too
Am                            
These words get over used when 
F             Csus2       G
We get up and over it and over them
Am
Up and over it and over them
F          Csus2   G
I know you feel it too
Am
It all seems so untrue when 
F              Csus2       G
You get up and over it and over them
Am
Uh-oh oh no, uh-oh oh no x2
Tap to rate this tab
# A B C D E F G H I J K L M N O P Q R S T U V W X Y Z