Tegan And Sara - Feel It In My Bones Acoustic tab

This is the tab for the acoustic version
that can be found here http://www.youtube.com/watch?v=CK30n0BlK2k

This is my first tab so if you can rate it, that would be great. Enjoi everyone.

Progression # 1 (Verse)
"Blow by blow..."

e|---------------------------------------------------------------------------|
B|---------------------------------------------------------------------------|
G|---------------------------------------------------------------------------|
D|-3---------7--------3---------2--------------------------------------------|
A|-3---x8----7---x8---3---x8----2----x8--------------------------------------|
E|-1---------5--------5---------0--------------------------------------------|

Progression #2 (Chorus)
" I feel it in my bones..."

e|---------------------------------------------------------------------------|
B|---------------------------------------------------------------------------|
G|--------------5------------------------------------------------------------|
D|---3----------5---x8-----5-------------2-----------------------------------|
A|---3----x8----3----------5---x8--------2--x8-------------------------------|
E|---1---------------------3-------------0-----------------------------------|

Progression #3 (1st Bridge)
"Tell me that, I have one track..."

e|-----------------------------------------------------------------------------|
B|-----------------------------------------------------------------------------|
G|-------------------------5---------------------------------------------------|
D|----7----------3---------5----16x----5---------------------------------------|
A|----7---x16----3--x16----3-----------5----x16--------------------------------|
E|----5----------1---------------------3---------------------------------------|

Progression #4 (2nd Bridge)
"I take a breath, take a breath..."

e|---------------------------------------------------------------------------|
B|---------------------------------------------------------------------------|
G|---------------------------------------------------------------------------|
D|----7---------------5------------------------------------------------------|
A|----7---x32---------5----x32-----------------------------------------------|
E|----5---------------3------------------------------------------------------|


The song goes as follows:

Verse x4
Chorus x2
Verse x4
Chorus x4
1st bridge x2
Chorus x2
2nd Bridge x2
Chorus x4

Sara plays the F bar for an extra measure in the final chorus but its an accident haha

Awesome musicians.
Tap to rate this tab
 
# A B C D E F G H I J K L M N O P Q R S T U V W X Y Z