Song name
# A B C D E F G H I J K L M N O P Q R S T U V W X Y Z

Tegan And Sara - Hop A Plane tab

Hop A Plane by Tegan and Sara
From my favourite album ‘The Con’
Hope you like it.

Standard tuning


Intro / Verse

e||--------------------------------------|
B||--------------------------------------|
G||---------12-12------------------------|
D||--12-12--12-12--12-12--7-7------------|
A||--12-12--10-10--12-12--7-7------------|
E||--10-10---------10-10--5-5------------|

    I took the train back, back to where I came from.
e||-----------------------|
B||-----------------------|
G||-----------------------| ~PAUSE~
D||--12-12----------------|
A||--12-12----------------|
E||--10-10----------------|

Start with the verse chords again when she sings, “I took it all alone, its been so long 
know”

e||--------------------------------------|
B||--------------------------------------|
G||---------12-12------------------------|
D||--12-12--12-12--12-12--7-7------------|
A||--12-12--10-10--12-12--7-7------------|
E||--10-10---------10-10--5-5------------|


Chorus

e||---------------------------------|
B||---------------------------------|
G||-7-----7-------------------------|
D||-7-x8--7-x8--5------7------------|
A||-5-----4-----5-x8---7-x8---------|
E||-------------3------5------------|

After Chorus play this until the 2nd verse starts.
 --------------------------------------|
 --------------------------------------|
 ---------12-12------------------------|
 --12-12--12-12--12-12--7-7------------|
 --12-12--10-10--12-12--7-7------------|
 --10-10---------10-10--5-5------------|

2nd Verse

I'm moving east then, somewhere far away from, the sight of my hands, the sight of me 
moving. You can't just hop a plane and come and visit me again. I claim it's in my head 
I regret offering..

e||---------------------------------|
B||---------------------------------|
G||--7-7-7-7--12--7-7-7-7-----------|
D||--7-7-7-7--12--7-7-7-7--7--------|
A||--5-5-5-5--10--5-5-5-5--7--------|
E||------------------------5--------|

Listen carefully for the pattern she plays the 2nd verse in.

Chorus

1st Guitar
e||---------------------------------|
B||---------------------------------|
G||-7-----7-------------------------|
D||-7-x8--7-x8--5------7------------|
A||-5-----4-----5-x8---7-x8---------|
E||-------------3------5------------|

2nd Guitar (Lead)
e||------------------------------------------------------------------------|
B||------------------------------------------------------------------------|
G||---------------------------------------------------------12-12-12-12-12-|
D||--12-12-12-12-12-12-12-12-11-11-11-11-11-11-11-11--9-9-9----------------|
A||------------------------------------------------------------------------|
E||------------------------------------------------------------------------|

----------------------------||
-----------10-10-10-10-10---||
----------------------------||
--11-11-11------------------||
----------------------------||
----------------------------||


Outro

e||--------------------------------------|
B||--------------------------------------|
G||---------12-12------------------------|
D||--12-12--12-12--12-12--7-7------------|
A||--12-12--10-10--12-12--7-7------------|
E||--10-10---------10-10--5-5------------|

End.
-----------||
-----------||
-----------||
----12-12--||
----12-12--||
----10-10--||
Tap to rate this tab
 
# A B C D E F G H I J K L M N O P Q R S T U V W X Y Z