Tegan And Sara - Light Up tab

-------------------------------------------------------------------------------
			       LIGHT UP by Tegan & Sara
-------------------------------------------------------------------------------
Tabbed by: CGlav
Email:

Tuning: Standard

Capo on 4th Fret

Verse:
e|----------------------------------------------------------|
B|----------------------------------------------------------|
G|--------0--2--------1/2--0--------2--4--------1/2--0------|
D|------------------------------0-----------0---------------|
A|----2------------3----------------------------------------|
E|-0------------0------------3-----------3------------------|

Pre-chorus:
e|-------0--------------------------------------------------|
B|----------3--------3--1------------0----------------------|
G|----0-----------0---------------0-----------1/2--0--------|
D|-2-----------0---------------4-----------0----------------|
A|--------------------------3-----------2-------------------|
E|----------------------------------------------------------|

Chorus:
e|----------------------------------------------------------|
B|-------3-----------1--------------0-----------------------|
G|----0-----------0--------------0-----------1/2--0---------|
D|-2-----------0--------------4-----------0-----------------|
A|-------------------------3-----------2--------------------|
E|----------------------------------------------------------|


Verse (2x)
What would I do differently
With two kids on my hip?

Pre-chorus (2x)
Let them say what they will, cos they will anyhow.
Let them say what they will, cos they will anyhow.

Chorus (2x)
(Lay, lay, lay)
Lay back and light up.
(Lay, lay, lay)
Lay back and light up without any guilt.

Verse (4x)
Im the age you were then.
What goes through your mind?
Find some success and reduce the worry
On your babiesí minds.

Pre-chorus (2x)
Let them say what they will, cos they will anyhow.
Let them say what they will, cos they will anyhow.

Chorus (4x)
(Lay, lay, lay)
Lay back and light up.
(Lay, lay, lay)
Lay back and light up without any guilt.

Verse (1x, insturmental)

Verse (3x)
Credit my weak heart and strong mind to that
Bad circumstance, oh, that terrible time.
If Id searched for myself, what would I find?

Pre-chorus (2x)
Let them say what they will, cos they will anyhow.
Let them say what they will, cos they will anyhow.

Verse (2x)
Weíre eggshells and not easy to hold;
We uncurl and unwind when we sleep side by side.

Pre-chorus (2x)
Let them say what they will, cos they will anyhow.
Let them say what they will, cos they will anyhow.

Chorus (2x)*
(Lay, lay, lay)
Lay back and light up.
(Lay, lay, lay)
Lay back and light up without any guilt.

*Repeat whole chorus 3x

-end on:
e|-------|
B|-------|
G|-------|
D|---3~~-|
A|-------|
E|-------|

Itís not exact, but I think it sounds nice. Standard tuning is convenient as well. Hope 
can benefit from it! -C

************************************

| /   slide up
| \   slide down
| h   hammer-on
| p   pull-off
| ~   vibrato
| +   harmonic
| x   Mute note
| b   Bend
| pb  Pre-bend
| br  Bend release
| pbr Pre-bend release
| brb Bend release bend

************************************
Tap to rate this tab
 
# A B C D E F G H I J K L M N O P Q R S T U V W X Y Z