Song name
# A B C D E F G H I J K L M N O P Q R S T U V W X Y Z

Tegan And Sara - Northshore tab

my first tab.. :)

Intro - *Listen for strum pattern
e|--------------------------------------|
B|--------------------------------------|
G|--------------------------------------|
D|-11-11-11-11-14-14--------------------|
A|-9--9--9--9--12-12--12-12-12-12-14-14-|
E|--------------------10-10-10-10-12-12-|

Verse (0:04 - 0:16) (4x)
e|--------------------------------------|
B|--------------------------------------|
G|--------------------------------------|
D|-11-11-11-11-14-14--------------------|
A|-9--9--9--9--12-12--12-12-12-12-14-14-|
E|--------------------10-10-10-10-12-12-|

Chorus (0:17 - 0:26) 
e|---------------------------------------------------------------------|
B|---------------------------------------------------------------------|
G|---------------------------------------------------------------------|
D|-1111111111111111------------------1414141414141414------------------|
A|-9-9-9-9-9-9-9-9--1212121212121212-1212121212121212-1414141414141414-|
E|------------------1010101010101010------------------1212121212121212-|

Intro (0:26 - 0:30)
e|--------------------------------------|
B|--------------------------------------|
G|--------------------------------------|
D|-11-11-11-11-14-14--------------------|
A|-9--9--9--9--12-12--12-12-12-12-14-14-|
E|--------------------10-10-10-10-12-12-|

Verse 2 (0:30 - 0:42) (4x)
e|--------------------------------------|
B|--------------------------------------|
G|--------------------------------------|
D|-11-11-11-11-14-14--------------------|
A|-9--9--9--9--12-12--12-12-12-12-14-14-|
E|--------------------10-10-10-10-12-12-|

Chorus 2 (0:43 - 0:51)
e|---------------------------------------------------------------------|
B|---------------------------------------------------------------------|
G|---------------------------------------------------------------------|
D|-1111111111111111------------------1414141414141414------------------|
A|-9-9-9-9-9-9-9-9--1212121212121212-1212121212121212-1414141414141414-|
E|------------------1010101010101010------------------1212121212121212-|

Intro (0:52 - 0:57)(2x)
e|--------------------------------------|
B|--------------------------------------|
G|--------------------------------------|
D|-11-11-11-11-14-14--------------------|
A|-9--9--9--9--12-12--12-12-12-12-14-14-|
E|--------------------10-10-10-10-12-12-|

Bridge (0:58 - 1:07) (4x)
e|----------------------------------------|
B|----------------------------------------|
G|----------------------------------------|
D|-11-11-11--14-14-14---------------------|
A|-9--9--9---12-12-12--12-12-12--14-14-14-|
E|---------------------10-10-10--12-12-12-|

Intro (1:07 - 1:11)
e|--------------------------------------|
B|--------------------------------------|
G|--------------------------------------|
D|-11-11-11-11-14-14--------------------|
A|-9--9--9--9--12-12--12-12-12-12-14-14-|
E|--------------------10-10-10-10-12-12-|

Verse 3 (1:11 - 1:23)
bass for the first half then
(2x)
e|--------------------------------------|
B|--------------------------------------|
G|--------------------------------------|
D|-11-11-11-11-14-14--------------------|
A|-9--9--9--9--12-12--12-12-12-12-14-14-|
E|--------------------10-10-10-10-12-12-|

Chorus (1:24 - 1:33)
First half is just bass, come in at (1:34)
Play this until the end at (2:03)
e|---------------------------------------------------------------------|
B|---------------------------------------------------------------------|
G|---------------------------------------------------------------------|
D|-1111111111111111------------------1414141414141414------------------|
A|-9-9-9-9-9-9-9-9--1212121212121212-1212121212121212-1414141414141414-|
E|------------------1010101010101010------------------1212121212121212-|

hope it helped!  :)
Tap to rate this tab
 
# A B C D E F G H I J K L M N O P Q R S T U V W X Y Z