Tegan And Sara - The Ocean chords

i like to play it this way.. any questions or suggestions can be sent to 
:)

tuning: standard

Verses

e-------------|
B--5----3-----|
G--6----4-----|
D--7----5-----|
A--0----0-----|
E-------------|

(just alternate between these two chords.. listen to the song for the strumming pattern)

Chorus

e--7----3----------|
B--7----3----5-----|
G--7----4----6-----|
D--9----5----7-----|
A--9----5----0-----|
E--7----3----------|

(same strumming pattern as the verses but with these three chords instead..)

so thats it... pretty simple and i think it sounds pretty good.. enjoy :)
Tap to rate this tab
 
# A B C D E F G H I J K L M N O P Q R S T U V W X Y Z