Song name
# A B C D E F G H I J K L M N O P Q R S T U V W X Y Z

Tegan And Sara - His Love tab

Verse:

e--------------------------------------------------------/
B--------------------------------------------------------/
G-------0-------------0---0-----0--------------0----0----/
D-----------7-----------------------10-------------------/
A---5-----------5---1---3---8------------8---5---3-------/
E--------------------------------------------------------/

Augusten, if I write something beautiful
Will it squash the hurt thatís living deep inside of you?
Augusten, are you just like me
Does your hurt fade as you write out your history?

I just want to know how you were able
To survive so long with the wolf at the table

Augusten, so you were hiding in the forest
With your love still laid out before him
Augusten, with that love stuck inside
how did you ever sleep at night?

I just want to know how you were able
To survive so long with the wolf at the table
Augusten, tell me how were you able
To control the urge to kill the wolf at the table?

e---------------------------------------|
B---------------------------------------|
G-------0-----------0-------------------|  x2
D-----------3-----------3-------3-------|
A---1-----------1-----------1-----------|
E---------------------------------------|


e---------------------------------------|
B---------------------------------------|
G-------0------------0------------0-----|
D-----------10-----------10-------------|
A---8------------8------------8---------|
E---------------------------------------|

e---------------------------------------|
B---------------------------------------|
G-------0-----------0-----------0-------|
D-----------7-----------7---------------|
A---5-----------5-----------5-----------|
E---------------------------------------|

His love, his love you spoke of
Oh oh oh oh oh oh oh oh oh oh oh oh oh....

Verse x4


Augusten, 
Do you struggle for the words? 
Does the right way to put it sometimes hurt? 
Augusten, Am I just like you? 
Could I ever truly know what I would do? 

I just wanna know how you were able 
To survive so long with a wolf at the table 
Augusten, tell me, how were you able 
To control the urge to kill the wolf at the table? 


e---------------------------------------|
B---------------------------------------|
G-------0-----------0-------------------|  x2
D-----------3-----------3-------3-------|
A---1-----------1-----------1-----------|
E---------------------------------------|

e---------------------------------------|
B---------------------------------------|
G-------0-----------0-----------0-------|
D-----------7-----------7---------------|   x2
A---5-----------5-----------5-----------|
E---------------------------------------|
His love (x6)
You spoke of 

One, two, three, four 
His love right out the door (x3) 

His love 
His love 
You spoke of (x3)
Tap to rate this tab
 
# A B C D E F G H I J K L M N O P Q R S T U V W X Y Z