Song name
# A B C D E F G H I J K L M N O P Q R S T U V W X Y Z

Tegan And Sara - Where Does The Good Go tab

Where Does the Good Go  by Tegan and Sara


standard tuning
no capo


Intro/Verse:


E--x---x---|
B--x---x---|
G--13--12--|
D--13--13--|
A--11--10--|
E--x---x---|


Chorus:


E--x---x--|
B--x---x--|
G--8---7--|
D--8---8--|
A--6---5--|
E--x---x--|

the background picking part is:
E-------------------------------|
B-------------------------------|
G-------------------------------|
D-------------------------------|
A-------------------------------|
E--4--4h6--3--3h4--1--1h3--1-1--|

Listen to the song for the rhythm
Tap to rate this tab
 
# A B C D E F G H I J K L M N O P Q R S T U V W X Y Z