Tegan And Sara - I Cant Take It tab

I Can't Take It - Tegan and Sara

Standard tuning, no capo


Intro/Verse:
(The d string 5th fret note, can also be played on the g string, open, depending
  on what kind of sound you want)


E--------------------------------------------------------------------|
B-------3-------3-------3-------3------------------------------------|
G-------------------------------------------------------------------.| (x6)
D---------------------------------------5-------5-------5-------5---.|
A--------------------------------------------------------------------|
E---3-3---3-3-3---3-3-3---3-3-3---3-0-0---0-0-0---0-0-0---0-0-0---0--|


"don't move so slow...."
      E         D         C                         C
E-----------------------------------------|    |---------------------|
B-----------------------------------------|    |---------------------|
G----------------------------------------.|(x4)|---------------------|
D------9---------7---------5--------5----.|    |------5--------5-----|
A--7-7---7---5-5---5---3-3---3--3-3---3---|    |--3-3---3--3-3---3---|
E-----------------------------------------|    |---------------------|



E--------------------------------------------------------------------|
B-------3-------3-------3-------3------------------------------------|
G-------------------------------------------------------------------.| (x4)
D---------------------------------------5-------5-------5-------5---.|
A--------------------------------------------------------------------|
E---3-3---3-3-3---3-3-3---3-3-3---3-0-0---0-0-0---0-0-0---0-0-0---0--|



"don't move so slow..."
     E          D         C                         C
E-----------------------------------------|    |---------------------|
B-----------------------------------------|    |---------------------|
G----------------------------------------.|(x4)|---------------------|
D------9---------7---------5--------5----.|    |------5--------5-----|
A--7-7---7---5-5---5---3-3---3--3-3---3---|    |--3-3---3--3-3---3---|
E-----------------------------------------|    |---------------------|


     D
E----x---|
B----7---|
G----7---| (same chord, for 4 bars)
D----7---|
A----5---|
E----x---|


"...can't take it....."

    C   G
E---3---3---|
B---5---3---|
G---5---4--.|(x4)
D---5---5--.|
A---3---5---|
E---x---3---|

"I can whoa whoa whoa whoa whoa..."
      E         D         C
E------------------------------------------------------------|
B------------------------------------------------------------|
G-----------------------------------------------------------.|(x2)
D------9---------7---------5--------5---------5--------5----.|
A--7-7---7---5-5---5---3-3---3--3-3---3---3-3---3--3-3---3---|
E------------------------------------------------------------|

"I can't take it..."
    C   G
E---3---3---|
B---5---3---|
G---5---4--.|(x4)
D---5---5--.|
A---3---5---|
E---x---3---|


  "I can woah whoa whoa whoa whoa"
      E        D        C
E------------------------------------------------------------|         
B------------------------------------------------------------|  
G-----------------------------------------------------------.|(x3)  
D------9---------7---------5--------5---------5--------5----.|     
A--7-7---7---5-5---5---3-3---3--3-3---3---3-3---3--3-3---3---|      
E------------------------------------------------------------|
  You can semi strum this part now, just accent the d string notes a bit and it sounds good.
     E          D         C
E--------------------------------------------|
B--------------------------------------------|
G--------------------------------------------|
D------9---------7---------5--------5--------|
A--7-7---7---5-5---5---3-3---3--3-3---3---3--|
E--------------------------------------------|
Tap to rate this tab
 
# A B C D E F G H I J K L M N O P Q R S T U V W X Y Z