Song name
# A B C D E F G H I J K L M N O P Q R S T U V W X Y Z

Tegan And Sara - Dark Come Soon tab

Artist: Tegan and Sara
Song: Dark Come Soon
Album: The Con

  
tune A to G
capo:5

Intro: (Repeat this phrase 2x)

E------------|            |----------------|                  |----------------|
B------------|            |---------0------|                  |---------1------|
G------------|x4          |------------0---|x1                |------------0---|x4
D------------|            |----------------|                  |------2---------|
A--------4---|            |------4---------|                  |---0------------|
E-----0------|            |---0------------|                  |----------------|
 


Verse 
("Dark...")
(Repeat this phrase 2x)
E------------|               |----------------|                |----------------|
B------------|               |---------0------|                |---------1------|
G------------|x4             |------------0---|x1              |------------0---|x4
D------------|               |----------------|                |------2---------|
A--------4---|               |------4---------|                |---0------------|
E-----0------|               |---0------------|                |----------------|


"Everything I love...."
(Repeat phrase 2x)

E----------------|                |----------------|
B---------0------|                |---------1------|
G------------0---| x4             | -----------0---| x4
D------5---------|                |------2---------|
A---4------------|                |---0------------|
E----------------|                |----------------|

Verse 
("Don't...")
(Repeat this phrase 2x)
E------------|           |----------------|                  |----------------|
B------------|           |---------0------|                  |---------1------|
G------------|x4         |------------0---|x1                |------------0---|x4
D------------|           |----------------|                  |------2---------|
A--------4---|           |------4---------|                  |---0------------|
E-----0------|           |---0------------|                  |----------------|
 

"Everything I love...."
(Repeat phrase 2x)

E----------------|        |----------------|
B---------0------|        |---------1------|
G------------0---| x4     | -----------0---| x4
D------5---------|        |------2---------|
A---4------------|        |---0------------|
E----------------|        |----------------|


 Chorus:
"So What..."
Strummed

E------------|    
B---0----1---|     
G---0----0---| x2
D---5----2---|    
A---0----0---|    
E------------| 


Verses:
Strummed

E------------|    
B---0----1---|     
G---0----0---| x2
D---5----2---|    
A---4----0---|    
E------------| 


Interlude:

E---------------------------------------------|
B---------------------------------------------|     
G---0-0-0---0-0-0---0-0-0---0-0-0-0---0-0-0---| x4
D---4-4-4---5-5-5---7-7-7---2-2-2-2---0-0-0---|    
A---0-0-0---0-0-0---0-0-0---0-0-0-0---0-0-0---|
E---------------------------------------------| 


Verse:
Strummed

E------------|    
B---0----1---|     
G---0----0---| x4
D---5----2---|    
A---4----0---|    
E------------| 


 Chorus:
"So What..."
Strummed

E------------|    
B---0----1---|     
G---0----0---| x2
D---5----2---|    
A---0----0---|    
E------------| 


Verse:
Strummed

E------------|    
B---0----1---|     
G---0----0---| x2
D---5----2---|    
A---4----0---|    
E------------| 

Interlude:

E---------------------------------------------|
B---------------------------------------------|     
G---0-0-0---0-0-0---0-0-0---0-0-0-0---0-0-0---|
D---4-4-4---5-5-5---7-7-7---2-2-2-2---0-0-0---| x8  
A---0-0-0---0-0-0---0-0-0---0-0-0-0---0-0-0---|
E---------------------------------------------| 


"Dark..."
E------------|    
B---0----1---|     
G---0----0---| 
D---5----2---|    
A---4----0---|    
E------------|
Tap to rate this tab
 
# A B C D E F G H I J K L M N O P Q R S T U V W X Y Z