Tegan And Sara - City Girl tab

City Girl - If It Was You

Standard tuning
Capo: 3rd Fret


Verse:

   G   Em
E--3----0----|
B--3----0----|
G--0----0----|
D--0----2----|
A--2----2----|
E--3----0----|


The little picking part in the live version is:

E---------------------------------------|
B---------------------------------------|
G----7-----7----------4----4-----------.| repeat as needed.
D--5----5-----7-5/-2-----2----4-4/7----.|
A---------------------------------------|
E---------------------------------------|



Chorus: 

   C    D
E--0----2----|
B--1----3----|
G--0----2----|
D--2----0----|
A--3----x----|
E--x----x----|
Tap to rate this tab
 
# A B C D E F G H I J K L M N O P Q R S T U V W X Y Z