Tegan And Sara - Sentimental Tune Acoustic tab

Artist: Tegan and Sara
Song: Sentimental Tune
Album: Sainthood
Tuning: e B G D G E (A string tuned down to G)

Intro 

e |---------------------------------|
B |--0----0----0-----0----0-----0---|
G |--0----0----0-----0----2-----0---|
D |--9----0----9-----0----2-----2---|
G |--0----0----0-----0----0-----0---| 	
E |--10---10---10----10---0-----3---|

Verse 1

e |---------------------------------|
B |--0----0----0-----0----0-----0---|
G |--0----0----0-----0----2-----0---| (x2)
D |--9----0----9-----0----2-----2---|
G |--0----0----0-----0----0-----0---| 	
E |--10---10---10----10---0-----3---|

You in a simple gray coat in a simple white room,

Interlude

e |---------------------|
B |---0----0----0-------|
G |---0----0----0-------|
D |---7----4----2-------| (x2)
G |---0----0----0-------| 	
E |---8----5----3-------|

Oh, now you know you know it now.
And so, now you know you know it now.

e |---------------------------------|
B |--0----0----0-----0----0-----0---|
G |--0----0----0-----0----2-----0---| (x2)
D |--9----0----9-----0----2-----2---|
G |--0----0----0-----0----0-----0---| 	
E |--10---10---10----10---0-----3---|


You hate the tenderhearted torch song.
You catch a flame to my sentiment, my sentimental tune.

Interlude

Chorus

e |---------------------|
B |--12---0---0---------|
G |--0----2---0---------| (x4)
D |--10---2---x---------|
G |--0----0---5---------| 	
E |-----------0---------|

Hard-hearted don't worry I'm ready for a fight.
Unnerved, the nerve, you're nervous, nervous that I'm right.
Hard-hearted don't worry I'm ready for a fight.
Unnerved, the nerve, you're nervous, nervous that I'm right.


e |---------------------------------|
B |--0----0----0-----0----0-----0---|
G |--0----0----0-----0----2-----0---| (x2)
D |--9----0----9-----0----2-----2---|
G |--0----0----0-----0----0-----0---| 	
E |--10---10---10----10---0-----3---|

Verse 2

e |---------------------------------|
B |--0----0----0-----0----0-----0---|
G |--0----0----0-----0----2-----0---| (x2)
D |--9----0----9-----0----2-----2---|
G |--0----0----0-----0----0-----0---| 	
E |--10---10---10----10---0-----3---|

Now with your cause and affection on my mind,
I won't yield, throw caution into the blaze.

Interlude

e |---------------------|
B |---0----0----0-------|
G |---0----0----0-------|
D |---7----4----2-------| (x2)
G |---0----0----0-------| 	
E |---8----5----3-------|

Oh, now you know you know it now.
And so, now you know you know it now.

e |---------------------------------|
B |--0----0----0-----0----0-----0---|
G |--0----0----0-----0----2-----0---| (x2)
D |--9----0----9-----0----2-----2---|
G |--0----0----0-----0----0-----0---| 	
E |--10---10---10----10---0-----3---|


Watch, with a bit of friction I'll be under your clothes.
With a bit of focus I'll be under your skin.

Interlude

Chorus

e |---------------------|
B |--12---0---0---------|
G |--0----2---0---------| (x4)
D |--10---2---x---------|
G |--0----0---5---------| 	
E |-----------0---------|

Hard-hearted don't worry I'm ready for a fight.
Unnerved, the nerve, you're nervous, nervous that I'm right.
Hard-hearted don't worry I'm ready for a fight.
Unnerved, the nerve, you're nervous, nervous that I'm right.

Interlude (x3)

Tap to rate this tab
 
# A B C D E F G H I J K L M N O P Q R S T U V W X Y Z