Song name
# A B C D E F G H I J K L M N O P Q R S T U V W X Y Z

Tegan And Sara - Has Passed tab

----------------------------
HAS PASSED - Tegan and Sara
----------------------------
Tabbed by: Chandiggity
Email: chan5586@yahoo.com

Tuning: Standard, Capo on 3rd Fret

This song is played exactly like Tegan and Sara's 2007 song "Call it Off",
off of their album "The Con".  Knowing how that song is played helps with
this one.  You'll use your thumb to down pick the lower strings 
(The 4th and 6th strings), and your index and middle will stay on the 
second and third strings, up-picking them.

e|-----------------------------------------|
B|----2---2---2---2---2---2---2---2--------|
G|----3---3---3---3---3---3---3---3--------|
D|--0---0---0---0---0---0---0---0----------|
A|-----------------------------------------|
E|-----------------------------------------|

e|-----------------------------------------|
B|----0---0---0---0---0---0---0---0--------|
G|----2---2---2---2---2---2---2---2--------|
D|-----------------------------------------|
A|-----------------------------------------|
E|--3---3---3---3---3---3---3---3----------|

Same progression throughout the entire song, verse and chorus.  Very simple.
Tap to rate this tab
# A B C D E F G H I J K L M N O P Q R S T U V W X Y Z