Song name
# A B C D E F G H I J K L M N O P Q R S T U V W X Y Z

Tegan And Sara - The Ocean Acoustic tab

So I'm pretty sure this is 95% correct (don't hold it against me as I am open to
suggestions). Tried to get the tuning as precise as I could because the other tabs are in
standard tuning. So, for those like me who prefer exact tuning: give it a go and comment 
below for any suggestions, etc.

Reference video for tuning: http://www.youtube.com/watch?v=ekzDR7DPpME&feature=channel&list=UL

Reference video for playing along: http://www.youtube.com/watch?v=db9Ap9MaafQ

Artist: Tegan and Sara
Song: The Ocean (Acoustic)
Album: Sainthood
Tuning: d B F# A A E

Intro

Guitar 1

d  |--0-----0---0-----------|
B  |--0-----0---0-----------|
F# |--7-----0---5-----------|
A  |--7-----0---5-----------|
A  |--0-----0---0-----------|
E  |--x-----0---x-----------|

Guitar 2

d  |--14---16---12-------------|
B  |--14---16---12-------------|
F# |--13---15---11-------------|
A  |---x----x----x-------------|
A  |---x----x----x-------------|
E  |---x----x----x-------------|


Verse 1

Guitar 1

d  |--0-----0---0-----------|
B  |--0-----0---0-----------|
F# |--7-----0---5-----------|
A  |--7-----0---5-----------|
A  |--0-----0---0-----------|
E  |--x-----0---x-----------|

When you wake what is it that you think of most?
When your bed is empty do you really sleep alone?
If I imagine you, body next to another.

All around me new love and it makes me sad.
All around me feel assured that you'll be back,
If I imagine you, body next to another.

Guitar 2

d  |--14---16---12-------------|
B  |--14---16---12-------------|
F# |--13---15---11-------------|
A  |---x----x----x-------------|
A  |---x----x----x-------------|
E  |---x----x----x-------------|

Stop crying to the ocean, stop crying over me.
Stop worrying over nothing, stop worrying over me.

Chorus

Guitar 1

d  |--0-----0---0---0---0-----|
B  |--0-----0---0---0---0-----|
F# |--0-----0---7---0---5-----|
A  |--0-----0---7---0---5-----|
A  |--x-----0---0---0---0-----|
E  |--7-----0---x---0---x-----|

Guitar 2

d  |---0----0---14-------------|
B  |---0----0---14-------------|
F# |---0----5---13-------------|
A  |---0----5----x-------------|
A  |---x----0----x-------------|
E  |---7----x----x-------------|


So it's been so long since you said
Well I know what I want and what I want's right here with you

Interlude

d  |--0-----0---0-----------|
B  |--0-----0---0-----------|
F# |--5-----0---7-----------|
A  |--5-----0---7-----------|
A  |--0-----0---0-----------|
E  |--x-----0---x-----------|

Verse 2

Guitar 1

d  |--0-----0---0-----------|
B  |--0-----0---0-----------|
F# |--7-----0---5-----------|
A  |--7-----0---5-----------|
A  |--0-----0---0-----------|
E  |--x-----0---x-----------|

Guitar 2

d  |--0---0---0---0---0---0----|
B  |--0---0---0---0---0---0----|
F# |--5---7---3---5---7---5----|
A  |--5---7---3---5---7---5----|
A  |--0---0---0---0---0---0----|
E  |--x---x---x---x---x---x----|

On the drive back here I was worrying over nothing
On the drive back there tears spilling over something
When I imagine you, body next to another

In the door and you're there and you're sorry for the fright
In the door, can I hear you saying you don't wanna fight
When I imagine you, body next to another

Guitar 2

d  |--14---16---12-------------|
B  |--14---16---12-------------|
F# |--13---15---11-------------|
A  |---x----x----x-------------|
A  |---x----x----x-------------|
E  |---x----x----x-------------|


Stop crying to the ocean, stop crying over me.
Stop worrying over nothing, stop worrying over me.

Chorus

Interlude

Verse 3

Guitar 1

d  |--0-----0---0-----------|
B  |--0-----0---0-----------|
F# |--7-----0---5-----------|
A  |--7-----0---5-----------|
A  |--0-----0---0-----------|
E  |--x-----0---x-----------|


In a flash it's back to you, just brought attention to the mess.
In a flash you're on top begging me to understand.
If I imagine you, body next to another.
You drop in for a minute and I'm sorry that I didn't drop in sooner
just to see you and see what you've been doin'.
Well I imagine you, body next to another.

Chorus (x2)

Guitar 1

d  |--0-----0---0---0---0-----|
B  |--0-----0---0---0---0-----|
F# |--0-----0---7---0---5-----|
A  |--0-----0---7---0---5-----|
A  |--x-----0---0---0---0-----|
E  |--7-----0---x---0---x-----|

Guitar 2

d  |---0----0---0---14-------------|
B  |---0----0---0---14-------------|
F# |---0----5---3---13-------------|
A  |---0----5---3----x-------------|
A  |---x----0---0----x-------------|
E  |---7----x---x----x-------------|

So it's been so long since you said
Well I know what I want and what I want's right here with you


Outro

d  |--0-----0---0-----------|
B  |--0-----0---0-----------|
F# |--5-----0---7-----------|
A  |--5-----0---7-----------|
A  |--0-----0---0-----------|
E  |--x-----0---x-----------|

d  |--0------|
B  |--0------|
F# |--5------|
A  |--5------|
A  |--0------|
E  |--x------|
Tap to rate this tab
# A B C D E F G H I J K L M N O P Q R S T U V W X Y Z