Song name
# A B C D E F G H I J K L M N O P Q R S T U V W X Y Z

Tegan And Sara - Give Chase tab

-----------------------------------------------------------------------
                        Give Chase - Tegan and Sara
-----------------------------------------------------------------------
Here's the version I used as reference. 
http://www.youtube.com/watch?v=CHknZ16Uu4U 
I'm still figuring out Sara's part.
Guitar 1 is Tegan, just distorted. Guitar 2 is (most likely) Ted 
and has a delay effect, which will change how the part sounds when played. 
You can adjust accordingly.

Tuning: standard
Verse, Guitar 1 palm muted: ("those windows...")
e|----------------------------------------------------|
B|----------------------------------------------------|
G|-11-11-11-11-11-11-11-11-11-11-11-11-11-11-11-11----|
D|-11-11-11-11-11-11-11-11-11-11-11-11-11-11-11-11----|
A|--9--9--9--9--9--9--9--9--9--9--9--9--9--9--9--9----|
E|----------------------------------------------------|
("these eyes...")
e|----------------------------------------------------|
B|----------------------------------------------------|
G|-11-11-11-11-11-11-11-11-11-11-11-11-11-11-11-11----|
D|-11-11-11-11-11-11-11-11-11-11-11-11-11-11-11-11----|
A|--8--8--8--8--8--8--8--8--8--8--8--8--8--8--8--8----|
E|----------------------------------------------------|
^repeat x4^

Chorus, Guitar 1: ("if I love again...")
e|----------------------------------------------------|
B|----------------------------------------------------|
G|-11-11-11-11-11-11-11-11-77777777-9999999999999999--|
D|-11-11-11-11-11-11-11-11-77777777-9999999999999999--|
A|--9--9--9--9--9--9--9--9-55555555-7777777777777777--|
E|----------------------------------------------------|
^repeat x2^

Chorus, Guitar 2:
e|----------------------------------------------------|
B|----------------------------------------------------|
G|----------------------------------------------------|
D|-11-11-11---9-9-9---7-7---6-6-6---4-4-4-4-4\--------|
A|----------------------------------------------------|
E|----------------------------------------------------|
^repeat x4^

Interlude for Guitar 1, repeat verse x4
Interlude, Guitar 2:
e|----------------------------------------------------|
B|----------------------------------------------------|
G|11-11-11-11-11-11-11-11/6-6-6-6-6-6-6\--------------|
D|-x--x--x--x--x--x--x--x-x-x-x-x-x-x-x-
                        
                    
Tap to rate this tab
 
# A B C D E F G H I J K L M N O P Q R S T U V W X Y Z