Song name
# A B C D E F G H I J K L M N O P Q R S T U V W X Y Z

Tegan And Sara - Im Not Your Hero tab

Artist: Tegan and Sara
Song: Iím Not Your Hero
Album: Hearthrob
Tuning: Standard
Reference Videos: (Studio) http://www.youtube.com/watch?v=_LmL1Chi0-o
        (Live) http://www.youtube.com/watch?v=xGA5KSbhnGs&feature=related

Cool song to jam out to. . .whenever! Comment below for mistakes, suggestions; positive 
feedback is always welcomed! Enjoy!

Intro (x3)

e |---------------------------|
B |---------------------------|
G |---------------------------|
D |------11-----11----11------|
A |--0-0----0-0----0----------|
E |---------------------------|

Verse 1

e |-5---9---2-----(2)--0-------|
B |-5---9---2-----(2)--3-------|
G |-6---9---2-----(2)--2-------|
D |-7---11--4--or-(4)--0-------|
A |-7---11--4-----(4)--0-------|
E |-5---9---2-----(x)--x-------|


e |-2----(2)---0---2---2-------|
B |-2----(2)---0---2---3-------|
G |-2----(2)---1---2---2-------|
D |-4-or-(4)---2---4---0-------|
A |-4----(4)---2---4---0-------|
E |-2----(x)---0---2---x-------|

Standing where I am now
Standing up at all
I was used to feeling like I was never gonna see myself at the finish line
Hanging on two parts of me
Hanging on at all
I was used to seeing no future in my sight line

Pre-Chorus (x2)

e |--x---x--x---x--------|
B |--x---x--x---x--------|
G |--7---6--4---x--------|
D |--7---6--4---7--------|
A |--5---4--2---7--------|
E |--x---x--x---5--------|

Sometimes it feels like they want to remind me
Send all those villains after me

Chorus (x3)

e |-10---7---x----10---------|
B |-10---9---x----10---------|
G |-11---9---11---11---------|
D |-12---9---11---12---------|
A |-12---7---9----12---------|
E |-10---x---x----10---------|

I'm not their hero
But that doesn't mean that I wasn't brave
I never walked the party line
Doesn't mean that I was never afraid
I'm not your hero
But that doesn't mean we're not one in the same

Interlude

e |---------------------------|
B |---------------------------|
G |---------------------------|
D |------11-----11----11------|
A |--0-0----0-0----0----------|
E |---------------------------|

Verse 2

e |-5---9---2-----(2)--0-------|
B |-5---9---2-----(2)--3-------|
G |-6---9---2-----(2)--2-------|
D |-7---11--4--or-(4)--0-------|
A |-7---11--4-----(4)--0-------|
E |-5---9---2-----(x)--x-------|


e |-2----(2)---0---2---2-------|
B |-2----(2)---0---2---3-------|
G |-2----(2)---1---2---2-------|
D |-4-or-(4)---2---4---0-------|
A |-4----(4)---2---4---0-------|
E |-2----(x)---0---2---x-------|

Feeling like I am now
Lighting up the hall
I was used to standing in the shadow of a damaged heart
Learning all I know now
Losing all I did
I never used to feel like I'd be standing so far ahead

Pre-Chorus

Sometimes it feels what I recovered you lost
Sending your peaceful loss to me

Chorus

Bridge

e |--x---x--x---x--------|
B |--x---x--x---x--------|
G |--7---6--4---x--------|
D |--7---6--4---7--------|
A |--5---4--2---7--------|
E |--x---x--x---5--------|

Sometimes it feels like the side that I'm on plays the toughest hand
Holds the longest stand
Sometimes it feels like I'm all that they've got
It's so hard to know I'm not what they want

Chorus

e |-10---7---x----10---------|
B |-10---9---x----10---------|
G |-11---9---11---11---------|
D |-12---9---11---12---------|
A |-12---7---9----12---------|
E |-10---x---x----10---------|

I'm not their hero
But that doesn't mean that I wasn't brave
I never walked the party line
Doesn't mean that I was never afraid
I'm not your hero
But that doesn't mean we're not one in the same

Synth

e |---------------------|
B |---7~/14~------------|
G |---------------------|
D |---------------------|
A |---------------------|
E |---------------------|
Tap to rate this tab
 
# A B C D E F G H I J K L M N O P Q R S T U V W X Y Z