Song name
# A B C D E F G H I J K L M N O P Q R S T U V W X Y Z

Tegan And Sara - Im Not Your Hero chords

Made a few adjustments to the earlier tab I posted. Hopefully this is more accurate!

Artist: Tegan and Sara
Song: Iím Not Your Hero (Acoustic)
Album: Hearthrob
Tuning: Standard
Reference Videos: http://www.youtube.com/watch?v=zGbDTw8JPms 


Intro (x3) (P.M.)

e |---------------------------|
B |---------------------------|
G |--------6-----6------6-----|
D |---7-7----7-7----7-7-------|
A |---------------------------|         
E |---------------------------|

Verse 1

e |-5---x---x----x-------|
B |-5---x---x----x-------|
G |-6---9---4----6-------|
D |-7---9---2----7-------|
A |-7---7---2----5-------|      
E |-5---x---x----x-------|


e |-x---x-----x-------|
B |-x---x-----x-------|
G |-x---4-----6-------|
D |-4---2-----7-------|
A |-4---2-----5-------|         
E |-2---x-----x-------|

Standing where I am now
Standing up at all
I was used to feeling like I was never gonna see myself at the finish line

e |-5---x---x----x-------|
B |-5---x---x----x-------|
G |-6---4---x----6-------|
D |-7---2---4----7-------|
A |-7---2---4----5-------|      
E |-5---x---2----x-------|


e |-x---x-----x-------|
B |-x---x-----x-------|
G |-x---4-----6-------|
D |-4---2-----7-------|
A |-4---2-----5-------|         
E |-2---x-----x-------|

Hanging on two parts of me
Hanging on at all
I was used to seeing no future in my sight line

Pre-Chorus (x2)

e |--x---x----x--------|
B |--x---x----x--------|
G |--6---6----6--------|
D |--7---7----7--------|
A |--x---0----x--------|        
E |--5---x----5--------|

Sometimes it feels like they want to remind me
Send all those villains after me

Chorus (x3)


e |-10---x---x----10---------|
B |-10---9---2----10---------|
G |-11---9---2----11---------|
D |-12---9---2----12---------|
A |-12---7---4----12---------|  
E |-10---x---x----10---------|

I'm not their hero
But that doesn't mean that I wasn't brave
I never walked the party line
Doesn't mean that I was never afraid
I'm not your hero
But that doesn't mean we're not one in the same

Interlude

e |---------------------------|
B |---------------------------|
G |--------6-----6------6-----|
D |---7-7----7-7----7-7-------|
A |---------------------------|         
E |---------------------------|

Verse 2

e |-5---x---x----x-------|
B |-5---x---x----x-------|
G |-6---4---x----6-------|
D |-7---2---4----7-------|
A |-7---2---4----5-------|      
E |-5---x---2----x-------|


e |-x---x-----x-------|
B |-x---x-----x-------|
G |-x---4-----6-------|
D |-4---2-----7-------|
A |-4---2-----5-------|         
E |-2---x-----x-------|


Feeling like I am now
Lighting up the hall
I was used to standing in the shadow of a damaged heart
Learning all I know now
Losing all I did
I never used to feel like I'd be standing so far ahead

Pre-Chorus

Chorus

Bridge

e |--x---x----x--------|
B |--x---x----x--------|
G |--6---6----6--------|
D |--7---7----7--------|
A |--x---0----x--------|        
E |--5---x----5--------|


Sometimes it feels like the side that I'm on plays the toughest hand
Holds the longest stand
Sometimes it feels like I'm all that they've got
It's so hard to know I'm not what they want

Chorus

e |-10---x---x----10---------|
B |-10---9---2----10---------|
G |-11---9---2----11---------|
D |-12---9---2----12---------|
A |-12---7---4----12---------|  
E |-10---x---x----10---------|

I'm not their hero
But that doesn't mean that I wasn't brave
I never walked the party line
Doesn't mean that I was never afraid
I'm not your hero
But that doesn't mean we're not one in the same
Tap to rate this tab
 
# A B C D E F G H I J K L M N O P Q R S T U V W X Y Z