Song name
# A B C D E F G H I J K L M N O P Q R S T U V W X Y Z

Tegan And Sara - Con tab

Tegan & Sara: The Con

Standard Tuning
*Capo 1st fret* - notes relative to capo

Guitar 1: clean
Guitar 2: distortion
 - can be played w/ only 1 guitar. the more important part is labelled w/ a *

INTRO:

*Guitar 1
e|--------------------------------|--------------------------------|
B|--------------------------------|--------------------------------|
G|-0-0-0-0-0-0-0-0-0-0-0-0-0-0-0-0|-0-0-0-0-0-0-0-0-0-0-0-0-0-0-0-0|
D|-0-0-0-0-0-0-0-0-0-0-0-0-0-0-0-0|-0-0-0-0-0-0-0-0-0-0-0-0-0-0-0-0|
A|1010101010-9-9-5-5-3-3-3-3-5-5-5|1010101010-9-9-5-5-3-3-3-3-5-5-5|
E|--------------------------------|--------------------------------|

VERSE:

Play intro riff x2

PRE-CHORUS:

Guitar 1
e|--------------------------------|--------------------------------|
B|--------------------------------|--------------------------------|
G|-0~------0~------0~------0~-----|-0~------0~------0~------0~-----|
D|-0~------0~------0~------0~-----|-0~------0~------0~------0~-----|
A|10~------9~------3~------5~-----|10~------9~------3~------5~-----|
E|--------------------------------|--------------------------------|
"Calm down..."                    "I'm capsized..."

e|--------------------------------|--------------------------------|
B|--------------------------------|--------------------------------|
G|-0~------0~------0~------0~-----|-0~------0~------0~------0~-----|
D|-0~------0~------0~------0~-----|-0~------0~------0~------0~-----|
A|10~------9~------3~------5~-----|10~------9~------3~------5~-----|
E|--------------------------------|--------------------------------|
"Calm down..."                    "I'm home now..."

*Guitar 2
e|--------------------------------|--------------------------------|
B|--------------------------------|--------------------------------|
G|---------4-4-x-x-5-5-x-x-7-7-x-x|---------4-4-x-x-5-5-x-x-7-7-x-x|
D|-2-2-x-x-4-4-x-x-5-5-x-x-7-7-x-x|-2-2-x-x-4-4-x-x-5-5-x-x-7-7-x-x|
A|-2-2-x-x-2-2-x-x-3-3-x-x-5-5-x-x|-2-2-x-x-2-2-x-x-3-3-x-x-5-5-x-x|
E|-0-0-x-x------------------------|-0-0-x-x------------------------|
"Calm down..."                    "I'm capsized..."

e|--------------------------------|--------------------------------|
B|--------------------------------|--------------------------------|
G|---------4-4-x-x-5-5-x-x-7-7-x-x|---------4-4-x-x-5-5-x-x-7-7-x-x|
D|-2-2-x-x-4-4-x-x-5-5-x-x-7-7-x-x|-2-2-x-x-4-4-x-x-5-5-x-x-7-7-x-x|
A|-2-2-x-x-2-2-x-x-3-3-x-x-5-5-x-x|-2-2-x-x-2-2-x-x-3-3-x-x-5-5-x-x|
E|-0-0-x-x------------------------|-0-0-x-x------------------------|
"Calm down..."                    "I'm home now..."

CHORUS:

Guitar 1
e|--------------------------------|--------------------------------|
B|--------------------------------|--------------------------------|
G|-0-0-0-0-0-0-0-0-0-0-0-0-0-0-0-0|-0-0-0-0-0-0-0-0-0-0-0-0-0-0-0-0|
D|-0-0-0-0-0-0-0-0-0-0-0-0-0-0-0-0|-0-0-0-0-0-0-0-0-0-0-0-0-0-0-0-0|
A|-3-3-3-3-3-3-3-3-3-3-3-3-3-3-3-3|-5-5-5-5-5-5-5-5-5-5-5-5-5-5-5-5|
E|--------------------------------|--------------------------------|
"...Coming around"                "Nobody likes to..."

e|--------------------------------|--------------------------------|
B|--------------------------------|--------------------------------|
G|-0-0-0-0-0-0-0-0-0-0-0-0-0-0-0-0|-0-0-0-0-0-0-0-0-0-0-0-0-0-0-0-0|
D|-0-0-0-0-0-0-0-0-0-0-0-0-0-0-0-0|-0-0-0-0-0-0-0-0-0-0-0-0-0-0-0-0|
A|-3-3-----3-3-----3-3-----3-3----|-5-5-5-5-5-5-5-5-5-5-5-5-5-5-5-5|
E|-----3-3-----3-3-----3-3-----3-3|--------------------------------|
"...cry"                          "Nobody likes me..."

e|--------------------------------|
B|--------------------------------|
G|-0-0-0-0-0-0-0-0-0-0-0-0-0-0-0-0|
D|-0-0-0-0-0-0-0-0-0-0-0-0-0-0-0-0|
A|-3-3-----3-3-----3-3-----3-3----|
E|-----3-3-----3-3-----3-3-----3-3|
"...cry"

*Guitar 2
e|--------------------------------|--------------------------------|
B|--------------------------------|--------------------------------|
G|-5-5-5-5-5-5-5-5-5-5-5-5-5-5-5-5|-7-7-7-7-7-7-7-7-7-7-7-7-7-7-7-7|
D|-5-5-5-5-5-5-5-5-5-5-5-5-5-5-5-5|-7-7-7-7-7-7-7-7-7-7-7-7-7-7-7-7|
A|-3-3-3-3-3-3-3-3-3-3-3-3-3-3-3-3|-5-5-5-5-5-5-5-5-5-5-5-5-5-5-5-5|
E|--------------------------------|--------------------------------|
"...Coming around"                "Nobody likes to..."

e|--------------------------------|--------------------------------|
B|--------------------------------|--------------------------------|
G|-----5-5-----5-5-----5-5-----5-5|-7-7-7-7-7-7-7-7-7-7-7-7-7-7-7-7|
D|-----5-5-----5-5-----5-5-----5-5|-7-7-7-7-7-7-7-7-7-7-7-7-7-7-7-7|
A|-3-3-----3-3-----3-3-----3-3----|-5-5-5-5-5-5-5-5-5-5-5-5-5-5-5-5|
E|-----3-3-----3-3-----3-3-----3-3|--------------------------------|
PM . .     . .     . .     . .
"...cry"                          "Nobody likes me..."

e|--------------------------------|
B|--------------------------------|
G|-----5-5-----5-5-----5-5-----5-5|
D|-----5-5-----5-5-----5-5-----5-5|
A|-3-3-----3-3-----3-3-----3-3----|
E|-----3-3-----3-3-----3-3-----3-3|
PM . .     . .     . .     . .
"...cry"

PRE-VERSE

*Guitar 1
e|--------------------------------|--------------------------------|
B|--------------------------------|--------------------------------|
G|-0-0-0-0-0-0-0-0-0-0-0-0-0-0-0-0|-0-0-0-0-0-0-0-0-0-0-0-0-0-0-0-0|
D|-0-0-0-0-0-0-0-0-0-0-0-0-0-0-0-0|-0-0-0-0-0-0-0-0-0-0-0-0-0-0-0-0|
A|-5-5-5-7-7-7-9-9-910101010101010|-3-3-3-3-3-3-3-3-3-3-3-3-3-3-3-3|
E|--------------------------------|--------------------------------|

Guitar 2
e|--------------------------------|--------------------------------|
B|--------------------------------|--------------------------------|
G|--------------------------------|--------------------------------|
D|-0-0-0-2-2-2-4-4-4-5-5-5-5-5-5-5|-5~-----------------------------|
A|--------------------------------|--------------------------------|
E|--------------------------------|--------------------------------|

VERSE:

Play intro riff x2

PRE-CHORUS:

Same as before

CHORUS:

Same as before

BRIDGE PART 1:

Play Pre-verse x1
then:

*Guitar 1
e|--------------------------------|--------------------------------|
B|-0~-----------------------------|-0~-----------------------------|
G|-0~-----------------------------|-0~-----------------------------|
D|-0~-----------------------------|-0~-----------------------------|
A|-5-5-5-7-7-7-9-9-910101010101010|-3-3-3-3-3-3-3-3-3-3-3-3-3-3-3-3|
E|--------------------------------|--------------------------------|
"Encircle me..."                  "Taken down"

e|--------------------------------|--------------------------------|
B|--------------------------------|--------------------------------|
G|-0~----0~----0~----0~-----------|-0~-----------------------------|
D|-0~----0~----0~----0~-----------|-0~-----------------------------|
A|-5-5-5-7-7-7-9-9-910101010101010|-3-3-3-3-3-3-3-3-3-3-3-3-3-3-3-3|
E|--------------------------------|--------------------------------|
"Encircle me..."                  "Taken do-own"

e|--------------------------------|--------------------------------|
B|--------------------------------|--------------------------------|
G|-0~----0~----0~----0~-----------|-0~-----------------------------|
D|-0~----0~----0~----0~-----------|-0~-----------------------------|
A|-5-5-5-7-7-7-9-9-910101010101010|-3-3-3-3-3-3-3-3-3-3-3-3-3-3-3-3|
E|--------------------------------|--------------------------------|
"Encircle me..."                  "Taken down"

e|--------------------------------|--------------------------------|
B|--------------------------------|--------------------------------|
G|-0~----0~----0~----0~-----------|-0~-----------------------------|
D|-0~----0~----0~----0~-----------|-0~-----------------------------|
A|-5-5-5-7-7-7-9-9-910101010101010|-3-3-3-3-3-3-3-3-3-3-3-3-3-3-3-3|
E|--------------------------------|--------------------------------|
"Encircle me..."                  "Taken do-own"

Guitar 2
e|--------------------------------|--------------------------------|
B|--------------------------------|--------------------------------|
G|--------------------------------|--------------------------------|
D|--------------------------------|--------------------------------|
A|--------------------------------|--------------------------------|
E|--------------------------------|--------------------------------|
"Encircle me..."                  "Taken down"

e|--------------------------------|--------------------------------|
B|--------------------------------|--------------------------------|
G|--------------------------------|--------------------------------|
D|-0-0-0-2-2-2-4-4-4-5-5-5-5-5-5-5|-5-5-5-5-5-5-5-5-5-5-5-5-5-5-5-5|
A|--------------------------------|-3-3-3-3-3-3-3-3-3-3-3-3-3-3-3-3|
E|--------------------------------|--------------------------------|
"Encircle me..."                  "Taken do-own"

e|--------------------------------|--------------------------------|
B|--------------------------------|--------------------------------|
G|--------------------------------|--------------------------------|
D|-0-0-0-2-2-2-4-4-4-5-5-5-5-5-5-5|-5-5-5-5-5-5-5-5-5-5-5-5-5-5-5-5|
A|--------------------------------|-3-3-3-3-3-3-3-3-3-3-3-3-3-3-3-3|
E|--------------------------------|--------------------------------|
"Encircle me..."                  "Taken down"

e|--------------------------------|--------------------------------|
B|--------------------------------|--------------------------------|
G|--------------------------------|--------------------------------|
D|-0-0-0-2-2-2-4-4-4-5-5-5-5-5-5-5|-5-5-5-5-5-5-5-5-5-5-5-5-5-5-5-5|
A|--------------------------------|-3-3-3-3-3-3-3-3-3-3-3-3-3-3-3-3|
E|--------------------------------|--------------------------------|
"Encircle me..."                  "Taken do-own"

BRIDGE PART 2:

Guitar 1
e|--------------------------------|--------------------------------|
B|--------------------------------|--------------------------------|
G|-0-0-0-0-0-0-0-0-0-0-0-0-0-0-0-0|-0-0-0-0-0-0-0-0-0-0-0-0-0-0-0-0|
D|-0-0-0-0-0-0-0-0-0-0-0-0-0-0-0-0|-0-0-0-0-0-0-0-0-0-0-0-0-0-0-0-0|
A|101010-9-9-9-7-7-7-5-5-5-2-2-3-3|-5-5-5-7-7-7-9-9-910101010101010|
E|--------------------------------|--------------------------------|
"Nobody, nobody..."               "Nobody, nobody..."

e|--------------------------------|
B|--------------------------------|
G|-0-0-0-0-0-0-0-0-0-0-0-0-0-0-0-0|
D|-0-0-0-0-0-0-0-0-0-0-0-0-0-0-0-0|
A|-3-3-3-3-3-3-3-3-3-3-3-3-3-3-3-3|
E|--------------------------------|

FINAL CHORUS:

Guitar 1
e|--------------------------------|--------------------------------|
B|--------------------------------|--------------------------------|
G|-0-0-0-0-0-0-0-0-0-0-0-0-0-0-0-0|--------------------------------|
D|-0-0-0-0-0-0-0-0-0-0-0-0-0-0-0-0|--------------------------------|
A|-3-3-3-3-3-3-3-3-3-3-3-3-3-3-3-3|--------------------------------|
E|--------------------------------|--------------------------------|
                                  "Nobody likes to..."

e|--------------------------------|--------------------------------|
B|--------------------------------|--------------------------------|
G|-0-0-0-0-0-0-0-0-0-0-0-0-0-0-0-0|-0-0-0-0-0-0-0-0-0-0-0-0-0-0-0-0|
D|-0-0-0-0-0-0-0-0-0-0-0-0-0-0-0-0|-0-0-0-0-0-0-0-0-0-0-0-0-0-0-0-0|
A|-3-3-----3-3-----3-3-----3-3----|-5-5-5-5-5-5-5-5-5-5-5-5-5-5-5-5|
E|-----3-3-----3-3-----3-3-----3-3|--------------------------------|
"...cry"                          "Nobody likes me..."

e|--------------------------------|
B|--------------------------------|
G|-0-0-0-0-0-0-0-0-0-0-0-0-0-0-0-0|
D|-0-0-0-0-0-0-0-0-0-0-0-0-0-0-0-0|
A|-3-3-----3-3-----3-3-----3-3----|
E|-----3-3-----3-3-----3-3-----3-3|
"...cry"

*Guitar 2
e|--------------------------------|--------------------------------|
B|--------------------------------|--------------------------------|
G|-5-5-5-5-5-5-5-5-5-5-5-5-5-5-5-5|--------------------------------|
D|-5-5-5-5-5-5-5-5-5-5-5-5-5-5-5-5|-7-7-7-7-7-7-7-7-7-7-7-7-7-7-7-7|
A|-3-3-3-3-3-3-3-3-3-3-3-3-3-3-3-3|-5-5-5-5-5-5-5-5-5-5-5-5-5-5-5-5|
E|--------------------------------|--------------------------------|
                                 PM . . . . . . . . . . . . . . . .
                                  "Nobody likes to..."

e|--------------------------------|--------------------------------|
B|--------------------------------|--------------------------------|
G|-----5-5-----5-5-----5-5-----5-5|-7-7-7-7-7-7-7-7-7-7-7-7-7-7-7-7|
D|-----5-5-----5-5-----5-5-----5-5|-7-7-7-7-7-7-7-7-7-7-7-7-7-7-7-7|
A|-3-3-----3-3-----3-3-----3-3----|-5-5-5-5-5-5-5-5-5-5-5-5-5-5-5-5|
E|-----3-3-----3-3-----3-3-----3-3|--------------------------------|
PM . .     . .     . .     . .
"...cry"                          "Nobody likes me..."

e|--------------------------------|
B|--------------------------------|
G|-----5-5-----5-5-----5-5-----5-5|
D|-----5-5-----5-5-----5-5-----5-5|
A|-3-3-----3-3-----3-3-----3-3----|
E|-----3-3-----3-3-----3-3-----3-3|
PM . .     . .     . .     . .
"...cry"

OUTRO: 

Guitar play Pre-Verse x3.5

*Guitar 2
e|--------------------------------|--------------------------------|
B|--------------------------------|--------------------------------|
G|-7-7-7-9-9-911111112121212121212|-5-5-5-5-5-5-5-5-5-5-5-5-5-5-5-5|
D|-x-x-x-x-x-x-x-x-x-x-x-x-x-x-x-x|-x-x-x-x-x-x-x-x-x-x-x-x-x-x-x-x|
A|-5-5-5-7-7-7-9-9-910101010101010|-3-3-3-3-3-3-3-3-3-3-3-3-3-3-3-3|
E|--------------------------------|--------------------------------|


e|--------------------------------|--------------------------------|
B|--------------------------------|--------------------------------|
G|-7-7-7-9-9-911111112121212121212|-5-5-5-5-5-5-5-5-5-5-5-5-5-5-5-5|
D|-x-x-x-x-x-x-x-x-x-x-x-x-x-x-x-x|-x-x-x-x-x-x-x-x-x-x-x-x-x-x-x-x|
A|-5-5-5-7-7-7-9-9-910101010101010|-3-3-3-3-3-3-3-3-3-3-3-3-3-3-3-3|
E|--------------------------------|--------------------------------|


e|--------------------------------|--------------------------------|
B|--------------------------------|--------------------------------|
G|-7-7-7-9-9-911111112121212121212|-5-5-5-5-5-5-5-5-5-5-5-5-5-5-5-5|
D|-x-x-x-x-x-x-x-x-x-x-x-x-x-x-x-x|-x-x-x-x-x-x-x-x-x-x-x-x-x-x-x-x|
A|-5-5-5-7-7-7-9-9-910101010101010|-3-3-3-3-3-3-3-3-3-3-3-3-3-3-3-3|
E|--------------------------------|--------------------------------|


e|--------------------------------|
B|--------------------------------|
G|-7-7-7-9-9-911111112121212121212|
D|-x-x-x-x-x-x-x-x-x-x-x-x-x-x-x-x|
A|-5-5-5-7-7-7-9-9-910101010101010|
E|--------------------------------|

                                END

Hope it makes sense. Feedback is welcome
Tap to rate this tab
# A B C D E F G H I J K L M N O P Q R S T U V W X Y Z